ISO-10303-21;
HEADER;
FILE_DESCRIPTION (( 'STEP AP203' ),
    '1' );
FILE_NAME ('5528007.STEP',
    '2017-08-16T15:34:34',
    ( '' ),
    ( '' ),
    'SwSTEP 2.0',
    'SolidWorks 2017',
    '' );
FILE_SCHEMA (( 'CONFIG_CONTROL_DESIGN' ));
ENDSEC;

DATA;
#1 = VECTOR ( 'NONE', #5, 39.37007874015748100 ) ;
#2 = EDGE_CURVE ( 'NONE', #267, #237, #4, .T. ) ;
#3 = DIRECTION ( 'NONE',  ( -1.000000000000000000, 0.0000000000000000000, -0.0000000000000000000 ) ) ;
#4 = CIRCLE ( 'NONE', #335, 0.6899999999999998400 ) ;
#5 = DIRECTION ( 'NONE',  ( -1.000000000000000000, -0.0000000000000000000, -0.0000000000000000000 ) ) ;
#6 = EDGE_CURVE ( 'NONE', #237, #379, #101, .T. ) ;
#7 = COORDINATED_UNIVERSAL_TIME_OFFSET ( 5, 0, .BEHIND. ) ;
#8 = CARTESIAN_POINT ( 'NONE',  ( 0.0000000000000000000, 0.0000000000000000000, -0.9629999999999999700 ) ) ;
#9 = FACE_OUTER_BOUND ( 'NONE', #317, .T. ) ;
#10 = EDGE_CURVE ( 'NONE', #267, #145, #310, .T. ) ;
#11 = CARTESIAN_POINT ( 'NONE',  ( 0.0000000000000000000, 0.0000000000000000000, 0.0000000000000000000 ) ) ;
#12 = DIRECTION ( 'NONE',  ( -0.0000000000000000000, -0.0000000000000000000, 1.000000000000000000 ) ) ;
#13 = EDGE_LOOP ( 'NONE', ( #360 ) ) ;
#14 = EDGE_LOOP ( 'NONE', ( #146 ) ) ;
#15 = DIRECTION ( 'NONE',  ( 0.0000000000000000000, -1.000000000000000000, 0.0000000000000000000 ) ) ;
#16 = CC_DESIGN_PERSON_AND_ORGANIZATION_ASSIGNMENT ( #89, #209, ( #105 ) ) ;
#17 = EDGE_LOOP ( 'NONE', ( #201 ) ) ;
#18 = EDGE_LOOP ( 'NONE', ( #96 ) ) ;
#19 = EDGE_LOOP ( 'NONE', ( #161, #388, #189, #173 ) ) ;
#20 = DIRECTION ( 'NONE',  ( 1.000000000000000000, 0.0000000000000000000, -0.0000000000000000000 ) ) ;
#21 = AXIS2_PLACEMENT_3D ( 'NONE', #73, #203, #168 ) ;
#22 = LOCAL_TIME ( 11, 34, 34.00000000000000000, #126 ) ;
#23 = CIRCLE ( 'NONE', #247, 0.6899999999999998400 ) ;
#24 = APPLICATION_CONTEXT ( 'configuration controlled 3d designs of mechanical parts and assemblies' ) ;
#25 = ADVANCED_FACE ( 'NONE', ( #297 ), #46, .F. ) ;
#26 = CARTESIAN_POINT ( 'NONE',  ( -0.2923610781208743100, -0.6249999999999998900, -0.9630393700787401900 ) ) ;
#27 = ORIENTED_EDGE ( 'NONE', *, *, #302, .F. ) ;
#28 =( NAMED_UNIT ( * ) PLANE_ANGLE_UNIT ( ) SI_UNIT ( $, .RADIAN. ) );
#29 = CARTESIAN_POINT ( 'NONE',  ( 0.0000000000000000000, 0.0000000000000000000, 1.286999999999999900 ) ) ;
#30 = VECTOR ( 'NONE', #141, 39.37007874015748100 ) ;
#31 = CARTESIAN_POINT ( 'NONE',  ( -0.4149999999999999200, 0.0000000000000000000, 0.0000000000000000000 ) ) ;
#32 = FACE_OUTER_BOUND ( 'NONE', #300, .T. ) ;
#33 = CC_DESIGN_DATE_AND_TIME_ASSIGNMENT ( #259, #77, ( #105 ) ) ;
#34 = PERSON_AND_ORGANIZATION ( #252, #122 ) ;
#35 = PLANE ( 'NONE',  #305 ) ;
#36 = CARTESIAN_POINT ( 'NONE',  ( 0.2923610781208743100, 0.6249999999999998900, -0.9630393700787401900 ) ) ;
#37 = EDGE_LOOP ( 'NONE', ( #197 ) ) ;
#38 = DIRECTION ( 'NONE',  ( -0.0000000000000000000, -0.0000000000000000000, 1.000000000000000000 ) ) ;
#39 = ORIENTED_EDGE ( 'NONE', *, *, #61, .T. ) ;
#40 = PERSON_AND_ORGANIZATION ( #252, #122 ) ;
#41 = EDGE_CURVE ( 'NONE', #151, #151, #207, .T. ) ;
#42 = FACE_OUTER_BOUND ( 'NONE', #71, .T. ) ;
#43 = CARTESIAN_POINT ( 'NONE',  ( -0.2923610781208743100, 0.6249999999999998900, 0.5000000000000000000 ) ) ;
#44 = EDGE_CURVE ( 'NONE', #63, #63, #92, .T. ) ;
#45 = PERSON_AND_ORGANIZATION ( #252, #122 ) ;
#46 = PLANE ( 'NONE',  #215 ) ;
#47 = ORIENTED_EDGE ( 'NONE', *, *, #10, .T. ) ;
#48 = ORIENTED_EDGE ( 'NONE', *, *, #302, .T. ) ;
#49 = DIRECTION ( 'NONE',  ( 0.0000000000000000000, 0.0000000000000000000, 1.000000000000000000 ) ) ;
#50 = CIRCLE ( 'NONE', #275, 0.6899999999999998400 ) ;
#51 = APPROVAL ( #214, 'UNSPECIFIED' ) ;
#52 = EDGE_LOOP ( 'NONE', ( #354 ) ) ;
#53 = AXIS2_PLACEMENT_3D ( 'NONE', #367, #143, #212 ) ;
#54 = PERSON_AND_ORGANIZATION_ROLE ( 'design_supplier' ) ;
#55 = PRODUCT_DEFINITION_FORMATION_WITH_SPECIFIED_SOURCE ( 'ANY', '', #153, .NOT_KNOWN. ) ;
#56 = DIRECTION ( 'NONE',  ( 1.000000000000000000, 0.0000000000000000000, -0.0000000000000000000 ) ) ;
#57 = CIRCLE ( 'NONE', #270, 0.4899999999999999900 ) ;
#58 = ADVANCED_FACE ( 'NONE', ( #397, #392 ), #136, .F. ) ;
#59 = APPLICATION_PROTOCOL_DEFINITION ( 'international standard', 'config_control_design', 1994, #24 ) ;
#60 = EDGE_LOOP ( 'NONE', ( #148 ) ) ;
#61 = EDGE_CURVE ( 'NONE', #313, #313, #167, .T. ) ;
#62 = COORDINATED_UNIVERSAL_TIME_OFFSET ( 5, 0, .BEHIND. ) ;
#63 = VERTEX_POINT ( 'NONE', #318 ) ;
#64 = ADVANCED_FACE ( 'NONE', ( #190 ), #277, .T. ) ;
#65 = CARTESIAN_POINT ( 'NONE',  ( 0.3750000000000000600, 0.0000000000000000000, 1.286999999999999900 ) ) ;
#66 = CC_DESIGN_PERSON_AND_ORGANIZATION_ASSIGNMENT ( #312, #54, ( #55 ) ) ;
#67 = FACE_BOUND ( 'NONE', #366, .T. ) ;
#68 = APPROVAL_DATE_TIME ( #333, #51 ) ;
#69 = TOROIDAL_SURFACE ( 'NONE', #241, 0.5499999999999999300, 0.05999999999999999800 ) ;
#70 = DIRECTION ( 'NONE',  ( -0.0000000000000000000, -0.0000000000000000000, -1.000000000000000000 ) ) ;
#71 = EDGE_LOOP ( 'NONE', ( #193, #216, #364, #48 ) ) ;
#72 = FACE_OUTER_BOUND ( 'NONE', #285, .T. ) ;
#73 = CARTESIAN_POINT ( 'NONE',  ( 0.0000000000000000000, 0.0000000000000000000, -0.9629999999999999700 ) ) ;
#74 = CARTESIAN_POINT ( 'NONE',  ( -0.2923610781208743100, -0.6249999999999998900, 0.0000000000000000000 ) ) ;
#75 = LINE ( 'NONE', #181, #1 ) ;
#76 = EDGE_CURVE ( 'NONE', #127, #127, #57, .T. ) ;
#77 = DATE_TIME_ROLE ( 'classification_date' ) ;
#78 = CC_DESIGN_DATE_AND_TIME_ASSIGNMENT ( #288, #147, ( #174 ) ) ;
#79 = DIRECTION ( 'NONE',  ( -0.0000000000000000000, -0.0000000000000000000, -1.000000000000000000 ) ) ;
#80 = DIRECTION ( 'NONE',  ( 0.0000000000000000000, 0.0000000000000000000, 1.000000000000000000 ) ) ;
#81 = APPROVAL_STATUS ( 'not_yet_approved' ) ;
#82 = COORDINATED_UNIVERSAL_TIME_OFFSET ( 5, 0, .BEHIND. ) ;
#83 = FACE_OUTER_BOUND ( 'NONE', #265, .T. ) ;
#84 = PRODUCT_RELATED_PRODUCT_CATEGORY ( 'detail', '', ( #153 ) ) ;
#85 =( CONVERSION_BASED_UNIT ( 'INCH', #389 ) LENGTH_UNIT ( ) NAMED_UNIT ( #408 ) );
#86 = AXIS2_PLACEMENT_3D ( 'NONE', #316, #372, #404 ) ;
#87 = ADVANCED_FACE ( 'NONE', ( #234, #32 ), #337, .T. ) ;
#88 = ORIENTED_EDGE ( 'NONE', *, *, #10, .F. ) ;
#89 = PERSON_AND_ORGANIZATION ( #252, #122 ) ;
#90 = LINE ( 'NONE', #36, #261 ) ;
#91 = ORIENTED_EDGE ( 'NONE', *, *, #61, .F. ) ;
#92 = CIRCLE ( 'NONE', #53, 0.5062628639014927800 ) ;
#93 = LINE ( 'NONE', #358, #223 ) ;
#94 = FACE_OUTER_BOUND ( 'NONE', #258, .T. ) ;
#95 = APPROVAL ( #213, 'UNSPECIFIED' ) ;
#96 = ORIENTED_EDGE ( 'NONE', *, *, #260, .T. ) ;
#97 = APPROVAL_PERSON_ORGANIZATION ( #194, #95, #401 ) ;
#98 = AXIS2_PLACEMENT_3D ( 'NONE', #303, #244, #276 ) ;
#99 = DIRECTION ( 'NONE',  ( 1.000000000000000000, 0.0000000000000000000, -0.0000000000000000000 ) ) ;
#100 = DESIGN_CONTEXT ( 'detailed design', #24, 'design' ) ;
#101 = LINE ( 'NONE', #299, #30 ) ;
#102 = CC_DESIGN_SECURITY_CLASSIFICATION ( #105, ( #55 ) ) ;
#103 = ORIENTED_EDGE ( 'NONE', *, *, #341, .T. ) ;
#104 = UNCERTAINTY_MEASURE_WITH_UNIT (LENGTH_MEASURE( 1.000000000000000100E-005 ), #85, 'distance_accuracy_value', 'NONE');
#105 = SECURITY_CLASSIFICATION ( '', '', #219 ) ;
#106 = ADVANCED_FACE ( 'NONE', ( #204, #111 ), #35, .F. ) ;
#107 = DIRECTION ( 'NONE',  ( 0.0000000000000000000, 0.0000000000000000000, 1.000000000000000000 ) ) ;
#108 = VERTEX_POINT ( 'NONE', #245 ) ;
#109 = DIRECTION ( 'NONE',  ( 0.0000000000000000000, 0.0000000000000000000, 1.000000000000000000 ) ) ;
#110 = APPROVAL_DATE_TIME ( #138, #200 ) ;
#111 = FACE_OUTER_BOUND ( 'NONE', #19, .T. ) ;
#112 = CARTESIAN_POINT ( 'NONE',  ( 0.0000000000000000000, 0.0000000000000000000, 0.0000000000000000000 ) ) ;
#113 =( GEOMETRIC_REPRESENTATION_CONTEXT ( 3 ) GLOBAL_UNCERTAINTY_ASSIGNED_CONTEXT ( ( #104 ) ) GLOBAL_UNIT_ASSIGNED_CONTEXT ( ( #85, #28, #251 ) ) REPRESENTATION_CONTEXT ( 'NONE', 'WORKASPACE' ) );
#114 = ADVANCED_FACE ( 'NONE', ( #198, #370 ), #339, .F. ) ;
#115 = DIRECTION ( 'NONE',  ( 0.0000000000000000000, 0.0000000000000000000, 1.000000000000000000 ) ) ;
#116 = EDGE_CURVE ( 'NONE', #322, #417, #23, .T. ) ;
#117 = PLANE ( 'NONE',  #98 ) ;
#118 = CARTESIAN_POINT ( 'NONE',  ( -0.2923610781208743100, -0.6249999999999998900, 0.0000000000000000000 ) ) ;
#119 = PRODUCT_DEFINITION_SHAPE ( 'NONE', 'NONE',  #174 ) ;
#120 = VECTOR ( 'NONE', #289, 39.37007874015748100 ) ;
#121 = CARTESIAN_POINT ( 'NONE',  ( -0.4149999999999999200, 0.0000000000000000000, -0.9629999999999999700 ) ) ;
#122 = ORGANIZATION ( 'UNSPECIFIED', 'UNSPECIFIED', '' ) ;
#123 = CARTESIAN_POINT ( 'NONE',  ( 0.0000000000000000000, 0.0000000000000000000, 0.5000000000000000000 ) ) ;
#124 = EDGE_LOOP ( 'NONE', ( #344, #295, #192, #103 ) ) ;
#125 = CC_DESIGN_APPROVAL ( #51, ( #105 ) ) ;
#126 = COORDINATED_UNIVERSAL_TIME_OFFSET ( 5, 0, .BEHIND. ) ;
#127 = VERTEX_POINT ( 'NONE', #255 ) ;
#128 = DIRECTION ( 'NONE',  ( 1.000000000000000000, 0.0000000000000000000, 0.0000000000000000000 ) ) ;
#129 = DIRECTION ( 'NONE',  ( -1.000000000000000000, 0.0000000000000000000, 0.0000000000000000000 ) ) ;
#130 = AXIS2_PLACEMENT_3D ( 'NONE', #221, #409, #386 ) ;
#131 = EDGE_LOOP ( 'NONE', ( #39 ) ) ;
#132 = AXIS2_PLACEMENT_3D ( 'NONE', #250, #144, #129 ) ;
#133 = DIRECTION ( 'NONE',  ( 1.000000000000000000, 0.0000000000000000000, 0.0000000000000000000 ) ) ;
#134 = CARTESIAN_POINT ( 'NONE',  ( -0.2923610781208743100, 0.6249999999999998900, -0.9630393700787401900 ) ) ;
#135 = AXIS2_PLACEMENT_3D ( 'NONE', #319, #224, #348 ) ;
#136 = CYLINDRICAL_SURFACE ( 'NONE', #243, 0.3750000000000000600 ) ;
#137 = DIRECTION ( 'NONE',  ( -0.0000000000000000000, -0.0000000000000000000, 1.000000000000000000 ) ) ;
#138 = DATE_AND_TIME ( #202, #292 ) ;
#139 = CONICAL_SURFACE ( 'NONE', #135, 0.5200000000000000200, 0.01745329251994333400 ) ;
#140 = DIRECTION ( 'NONE',  ( 1.000000000000000000, 0.0000000000000000000, 0.0000000000000000000 ) ) ;
#141 = DIRECTION ( 'NONE',  ( -1.000000000000000000, 0.0000000000000000000, 0.0000000000000000000 ) ) ;
#142 = VECTOR ( 'NONE', #371, 39.37007874015748100 ) ;
#143 = DIRECTION ( 'NONE',  ( 0.0000000000000000000, 0.0000000000000000000, 1.000000000000000000 ) ) ;
#144 = DIRECTION ( 'NONE',  ( 0.0000000000000000000, 0.0000000000000000000, -1.000000000000000000 ) ) ;
#145 = VERTEX_POINT ( 'NONE', #187 ) ;
#146 = ORIENTED_EDGE ( 'NONE', *, *, #323, .F. ) ;
#147 = DATE_TIME_ROLE ( 'creation_date' ) ;
#148 = ORIENTED_EDGE ( 'NONE', *, *, #41, .F. ) ;
#149 = COORDINATED_UNIVERSAL_TIME_OFFSET ( 5, 0, .BEHIND. ) ;
#150 = ADVANCED_FACE ( 'NONE', ( #274 ), #183, .T. ) ;
#151 = VERTEX_POINT ( 'NONE', #377 ) ;
#152 = PERSON_AND_ORGANIZATION_ROLE ( 'design_owner' ) ;
#153 = PRODUCT ( '5528007', '5528007', '', ( #395 ) ) ;
#154 = ADVANCED_FACE ( 'NONE', ( #94 ), #117, .F. ) ;
#155 = PLANE ( 'NONE',  #226 ) ;
#156 = ORIENTED_EDGE ( 'NONE', *, *, #406, .T. ) ;
#157 = CC_DESIGN_PERSON_AND_ORGANIZATION_ASSIGNMENT ( #384, #152, ( #153 ) ) ;
#158 = CARTESIAN_POINT ( 'NONE',  ( 0.5200000000000000200, 0.0000000000000000000, 0.5000000000000000000 ) ) ;
#159 = DATE_AND_TIME ( #349, #22 ) ;
#160 = AXIS2_PLACEMENT_3D ( 'NONE', #195, #70, #166 ) ;
#161 = ORIENTED_EDGE ( 'NONE', *, *, #281, .F. ) ;
#162 = AXIS2_PLACEMENT_3D ( 'NONE', #8, #235, #3 ) ;
#163 = CIRCLE ( 'NONE', #402, 0.4149999999999999200 ) ;
#164 = CARTESIAN_POINT ( 'NONE',  ( -0.2923610781208743100, 0.6249999999999998900, 0.5000000000000000000 ) ) ;
#165 = EDGE_CURVE ( 'NONE', #231, #231, #238, .T. ) ;
#166 = DIRECTION ( 'NONE',  ( -1.000000000000000000, 0.0000000000000000000, 0.0000000000000000000 ) ) ;
#167 = CIRCLE ( 'NONE', #132, 0.4149999999999999200 ) ;
#168 = DIRECTION ( 'NONE',  ( -1.000000000000000000, 0.0000000000000000000, 0.0000000000000000000 ) ) ;
#169 = EDGE_LOOP ( 'NONE', ( #416 ) ) ;
#170 = APPROVAL_PERSON_ORGANIZATION ( #34, #51, #175 ) ;
#171 = FACE_OUTER_BOUND ( 'NONE', #131, .T. ) ;
#172 = CARTESIAN_POINT ( 'NONE',  ( 0.2923610781208743100, -0.6249999999999998900, -0.9630393700787401900 ) ) ;
#173 = ORIENTED_EDGE ( 'NONE', *, *, #382, .F. ) ;
#174 = PRODUCT_DEFINITION ( 'UNKNOWN', '', #55, #100 ) ;
#175 = APPROVAL_ROLE ( '' ) ;
#176 = CARTESIAN_POINT ( 'NONE',  ( 0.0000000000000000000, 0.0000000000000000000, -0.06000000000000004600 ) ) ;
#177 = AXIS2_PLACEMENT_3D ( 'NONE', #11, #293, #399 ) ;
#178 = EDGE_LOOP ( 'NONE', ( #246, #156, #332, #266 ) ) ;
#179 = PERSON_AND_ORGANIZATION_ROLE ( 'creator' ) ;
#180 = DIRECTION ( 'NONE',  ( -1.000000000000000000, 0.0000000000000000000, 0.0000000000000000000 ) ) ;
#181 = CARTESIAN_POINT ( 'NONE',  ( -0.2923610781208743100, -0.6249999999999998900, 0.5000000000000000000 ) ) ;
#182 = PERSON_AND_ORGANIZATION ( #252, #122 ) ;
#183 = CYLINDRICAL_SURFACE ( 'NONE', #160, 0.6899999999999998400 ) ;
#184 = AXIS2_PLACEMENT_3D ( 'NONE', #254, #268, #368 ) ;
#185 = ADVANCED_FACE ( 'NONE', ( #9, #294 ), #334, .T. ) ;
#186 = CARTESIAN_POINT ( 'NONE',  ( 0.0000000000000000000, 0.0000000000000000000, 0.0000000000000000000 ) ) ;
#187 = CARTESIAN_POINT ( 'NONE',  ( 0.2923610781208743100, -0.6249999999999998900, 0.5000000000000000000 ) ) ;
#188 = EDGE_CURVE ( 'NONE', #237, #108, #90, .T. ) ;
#189 = ORIENTED_EDGE ( 'NONE', *, *, #2, .F. ) ;
#190 = FACE_OUTER_BOUND ( 'NONE', #411, .T. ) ;
#191 = DIRECTION ( 'NONE',  ( 0.0000000000000000000, 0.0000000000000000000, 1.000000000000000000 ) ) ;
#192 = ORIENTED_EDGE ( 'NONE', *, *, #281, .T. ) ;
#193 = ORIENTED_EDGE ( 'NONE', *, *, #363, .F. ) ;
#194 = PERSON_AND_ORGANIZATION ( #252, #122 ) ;
#195 = CARTESIAN_POINT ( 'NONE',  ( 0.0000000000000000000, 0.0000000000000000000, 0.5000000000000000000 ) ) ;
#196 = ORIENTED_EDGE ( 'NONE', *, *, #260, .F. ) ;
#197 = ORIENTED_EDGE ( 'NONE', *, *, #208, .F. ) ;
#198 = FACE_BOUND ( 'NONE', #169, .T. ) ;
#199 = DIRECTION ( 'NONE',  ( 0.0000000000000000000, 0.0000000000000000000, 1.000000000000000000 ) ) ;
#200 = APPROVAL ( #81, 'UNSPECIFIED' ) ;
#201 = ORIENTED_EDGE ( 'NONE', *, *, #76, .F. ) ;
#202 = CALENDAR_DATE ( 2017, 16, 8 ) ;
#203 = DIRECTION ( 'NONE',  ( 0.0000000000000000000, 0.0000000000000000000, -1.000000000000000000 ) ) ;
#204 = FACE_BOUND ( 'NONE', #309, .T. ) ;
#205 = DIRECTION ( 'NONE',  ( 0.0000000000000000000, -0.0000000000000000000, -1.000000000000000000 ) ) ;
#206 = DIRECTION ( 'NONE',  ( -0.0000000000000000000, -0.0000000000000000000, 1.000000000000000000 ) ) ;
#207 = CIRCLE ( 'NONE', #21, 0.4899999999999999900 ) ;
#208 = EDGE_CURVE ( 'NONE', #230, #230, #398, .T. ) ;
#209 = PERSON_AND_ORGANIZATION_ROLE ( 'classification_officer' ) ;
#210 = CIRCLE ( 'NONE', #415, 0.3750000000000000600 ) ;
#211 = ORIENTED_EDGE ( 'NONE', *, *, #208, .T. ) ;
#212 = DIRECTION ( 'NONE',  ( 1.000000000000000000, 0.0000000000000000000, 0.0000000000000000000 ) ) ;
#213 = APPROVAL_STATUS ( 'not_yet_approved' ) ;
#214 = APPROVAL_STATUS ( 'not_yet_approved' ) ;
#215 = AXIS2_PLACEMENT_3D ( 'NONE', #134, #15, #205 ) ;
#216 = ORIENTED_EDGE ( 'NONE', *, *, #116, .T. ) ;
#217 = CIRCLE ( 'NONE', #184, 0.3750000000000000600 ) ;
#218 = ADVANCED_FACE ( 'NONE', ( #171, #83 ), #324, .F. ) ;
#219 = SECURITY_CLASSIFICATION_LEVEL ( 'unclassified' ) ;
#220 = CC_DESIGN_APPROVAL ( #95, ( #55 ) ) ;
#221 = CARTESIAN_POINT ( 'NONE',  ( 0.0000000000000000000, 0.0000000000000000000, 0.0000000000000000000 ) ) ;
#222 = DIRECTION ( 'NONE',  ( 1.000000000000000000, 0.0000000000000000000, 0.0000000000000000000 ) ) ;
#223 = VECTOR ( 'NONE', #38, 39.37007874015748100 ) ;
#224 = DIRECTION ( 'NONE',  ( -0.0000000000000000000, -0.0000000000000000000, -1.000000000000000000 ) ) ;
#225 = CARTESIAN_POINT ( 'NONE',  ( 0.0000000000000000000, 0.0000000000000000000, 0.5000000000000000000 ) ) ;
#226 = AXIS2_PLACEMENT_3D ( 'NONE', #123, #107, #376 ) ;
#227 = ORIENTED_EDGE ( 'NONE', *, *, #44, .T. ) ;
#228 = ORIENTED_EDGE ( 'NONE', *, *, #382, .T. ) ;
#229 = DIRECTION ( 'NONE',  ( -1.000000000000000000, 0.0000000000000000000, 0.0000000000000000000 ) ) ;
#230 = VERTEX_POINT ( 'NONE', #158 ) ;
#231 = VERTEX_POINT ( 'NONE', #345 ) ;
#232 = EDGE_CURVE ( 'NONE', #145, #417, #75, .T. ) ;
#233 = VECTOR ( 'NONE', #12, 39.37007874015748100 ) ;
#234 = FACE_BOUND ( 'NONE', #14, .T. ) ;
#235 = DIRECTION ( 'NONE',  ( 0.0000000000000000000, 0.0000000000000000000, -1.000000000000000000 ) ) ;
#236 = VERTEX_POINT ( 'NONE', #31 ) ;
#237 = VERTEX_POINT ( 'NONE', #307 ) ;
#238 = CIRCLE ( 'NONE', #177, 0.5499999999999999300 ) ;
#239 = FACE_OUTER_BOUND ( 'NONE', #17, .T. ) ;
#240 = CLOSED_SHELL ( 'NONE', ( #150, #106, #311, #64, #410, #87, #342, #185, #218, #58, #114, #154, #25, #284 ) ) ;
#241 = AXIS2_PLACEMENT_3D ( 'NONE', #176, #191, #222 ) ;
#242 = FACE_OUTER_BOUND ( 'NONE', #383, .T. ) ;
#243 = AXIS2_PLACEMENT_3D ( 'NONE', #257, #137, #271 ) ;
#244 = DIRECTION ( 'NONE',  ( -0.0000000000000000000, 1.000000000000000000, 0.0000000000000000000 ) ) ;
#245 = CARTESIAN_POINT ( 'NONE',  ( 0.2923610781208743100, 0.6249999999999998900, 0.5000000000000000000 ) ) ;
#246 = ORIENTED_EDGE ( 'NONE', *, *, #6, .T. ) ;
#247 = AXIS2_PLACEMENT_3D ( 'NONE', #225, #49, #403 ) ;
#248 = FACE_OUTER_BOUND ( 'NONE', #391, .T. ) ;
#249 = PERSON_AND_ORGANIZATION_ROLE ( 'creator' ) ;
#250 = CARTESIAN_POINT ( 'NONE',  ( 0.0000000000000000000, 0.0000000000000000000, -0.9629999999999999700 ) ) ;
#251 =( NAMED_UNIT ( * ) SI_UNIT ( $, .STERADIAN. ) SOLID_ANGLE_UNIT ( ) );
#252 = PERSON ( 'UNSPECIFIED', 'UNSPECIFIED', 'UNSPECIFIED', ('UNSPECIFIED'), ('UNSPECIFIED'), ('UNSPECIFIED') ) ;
#253 = EDGE_LOOP ( 'NONE', ( #351 ) ) ;
#254 = CARTESIAN_POINT ( 'NONE',  ( 0.0000000000000000000, 0.0000000000000000000, 0.04000000000000011900 ) ) ;
#255 = CARTESIAN_POINT ( 'NONE',  ( 0.4899999999999999900, 0.0000000000000000000, -0.06000000000000004600 ) ) ;
#256 = AXIS2_PLACEMENT_3D ( 'NONE', #269, #343, #362 ) ;
#257 = CARTESIAN_POINT ( 'NONE',  ( 0.0000000000000000000, 0.0000000000000000000, -0.9629999999999998600 ) ) ;
#258 = EDGE_LOOP ( 'NONE', ( #228, #47, #272, #350 ) ) ;
#259 = DATE_AND_TIME ( #338, #346 ) ;
#260 = EDGE_CURVE ( 'NONE', #236, #236, #163, .T. ) ;
#261 = VECTOR ( 'NONE', #387, 39.37007874015748100 ) ;
#262 = VERTEX_POINT ( 'NONE', #65 ) ;
#263 = CARTESIAN_POINT ( 'NONE',  ( 0.2923610781208742000, -0.6249999999999998900, 0.0000000000000000000 ) ) ;
#264 = CARTESIAN_POINT ( 'NONE',  ( 0.0000000000000000000, 0.0000000000000000000, -0.06000000000000004600 ) ) ;
#265 = EDGE_LOOP ( 'NONE', ( #196 ) ) ;
#266 = ORIENTED_EDGE ( 'NONE', *, *, #188, .F. ) ;
#267 = VERTEX_POINT ( 'NONE', #263 ) ;
#268 = DIRECTION ( 'NONE',  ( -0.0000000000000000000, -0.0000000000000000000, -1.000000000000000000 ) ) ;
#269 = CARTESIAN_POINT ( 'NONE',  ( 0.0000000000000000000, 0.0000000000000000000, 0.5000000000000000000 ) ) ;
#270 = AXIS2_PLACEMENT_3D ( 'NONE', #264, #393, #140 ) ;
#271 = DIRECTION ( 'NONE',  ( 1.000000000000000000, 0.0000000000000000000, 0.0000000000000000000 ) ) ;
#272 = ORIENTED_EDGE ( 'NONE', *, *, #232, .T. ) ;
#273 = APPROVAL_DATE_TIME ( #159, #95 ) ;
#274 = FACE_OUTER_BOUND ( 'NONE', #124, .T. ) ;
#275 = AXIS2_PLACEMENT_3D ( 'NONE', #280, #109, #374 ) ;
#276 = DIRECTION ( 'NONE',  ( 0.0000000000000000000, -0.0000000000000000000, 1.000000000000000000 ) ) ;
#277 = CYLINDRICAL_SURFACE ( 'NONE', #329, 0.6899999999999998400 ) ;
#278 = AXIS2_PLACEMENT_3D ( 'NONE', #112, #79, #229 ) ;
#279 = CALENDAR_DATE ( 2017, 16, 8 ) ;
#280 = CARTESIAN_POINT ( 'NONE',  ( 0.0000000000000000000, 0.0000000000000000000, 0.5000000000000000000 ) ) ;
#281 = EDGE_CURVE ( 'NONE', #379, #304, #394, .T. ) ;
#282 = CARTESIAN_POINT ( 'NONE',  ( -0.2923610781208742000, 0.6249999999999998900, 0.0000000000000000000 ) ) ;
#283 = DIRECTION ( 'NONE',  ( 1.000000000000000000, 0.0000000000000000000, 0.0000000000000000000 ) ) ;
#284 = ADVANCED_FACE ( 'NONE', ( #248, #239 ), #69, .F. ) ;
#285 = EDGE_LOOP ( 'NONE', ( #211 ) ) ;
#286 = CARTESIAN_POINT ( 'NONE',  ( 0.0000000000000000000, 0.0000000000000000000, -0.9629999999999999700 ) ) ;
#287 =( LENGTH_UNIT ( ) NAMED_UNIT ( * ) SI_UNIT ( $, .METRE. ) );
#288 = DATE_AND_TIME ( #279, #356 ) ;
#289 = DIRECTION ( 'NONE',  ( -0.0000000000000000000, -0.0000000000000000000, 1.000000000000000000 ) ) ;
#290 = CARTESIAN_POINT ( 'NONE',  ( 0.0000000000000000000, 0.0000000000000000000, 1.286999999999999900 ) ) ;
#291 = CARTESIAN_POINT ( 'NONE',  ( 0.0000000000000000000, 0.0000000000000000000, 0.0000000000000000000 ) ) ;
#292 = LOCAL_TIME ( 11, 34, 34.00000000000000000, #62 ) ;
#293 = DIRECTION ( 'NONE',  ( 0.0000000000000000000, 0.0000000000000000000, 1.000000000000000000 ) ) ;
#294 = FACE_OUTER_BOUND ( 'NONE', #60, .T. ) ;
#295 = ORIENTED_EDGE ( 'NONE', *, *, #406, .F. ) ;
#296 = DIRECTION ( 'NONE',  ( 0.0000000000000000000, 0.0000000000000000000, -1.000000000000000000 ) ) ;
#297 = FACE_OUTER_BOUND ( 'NONE', #178, .T. ) ;
#298 = SHAPE_DEFINITION_REPRESENTATION ( #119, #314 ) ;
#299 = CARTESIAN_POINT ( 'NONE',  ( -0.2923610781208743100, 0.6249999999999998900, 0.0000000000000000000 ) ) ;
#300 = EDGE_LOOP ( 'NONE', ( #227 ) ) ;
#301 = APPLICATION_CONTEXT ( 'configuration controlled 3d designs of mechanical parts and assemblies' ) ;
#302 = EDGE_CURVE ( 'NONE', #145, #108, #50, .T. ) ;
#303 = CARTESIAN_POINT ( 'NONE',  ( -0.2923610781208743100, -0.6249999999999998900, -0.9630393700787401900 ) ) ;
#304 = VERTEX_POINT ( 'NONE', #118 ) ;
#305 = AXIS2_PLACEMENT_3D ( 'NONE', #291, #390, #20 ) ;
#306 = PLANE ( 'NONE',  #162 ) ;
#307 = CARTESIAN_POINT ( 'NONE',  ( 0.2923610781208743100, 0.6249999999999998900, 0.0000000000000000000 ) ) ;
#308 = DIRECTION ( 'NONE',  ( 1.000000000000000000, 0.0000000000000000000, 0.0000000000000000000 ) ) ;
#309 = EDGE_LOOP ( 'NONE', ( #321 ) ) ;
#310 = LINE ( 'NONE', #172, #233 ) ;
#311 = ADVANCED_FACE ( 'NONE', ( #42, #373 ), #155, .T. ) ;
#312 = PERSON_AND_ORGANIZATION ( #252, #122 ) ;
#313 = VERTEX_POINT ( 'NONE', #121 ) ;
#314 = ADVANCED_BREP_SHAPE_REPRESENTATION ( '5528007', ( #365, #130 ), #113 ) ;
#315 = CARTESIAN_POINT ( 'NONE',  ( 0.3750000000000000600, 0.0000000000000000000, 0.04000000000000011900 ) ) ;
#316 = CARTESIAN_POINT ( 'NONE',  ( 0.0000000000000000000, 0.0000000000000000000, -0.9629999999999999700 ) ) ;
#317 = EDGE_LOOP ( 'NONE', ( #336 ) ) ;
#318 = CARTESIAN_POINT ( 'NONE',  ( 0.5062628639014927800, 0.0000000000000000000, 1.286999999999999900 ) ) ;
#319 = CARTESIAN_POINT ( 'NONE',  ( 0.0000000000000000000, 0.0000000000000000000, 0.5000000000000000000 ) ) ;
#320 = AXIS2_PLACEMENT_3D ( 'NONE', #380, #199, #128 ) ;
#321 = ORIENTED_EDGE ( 'NONE', *, *, #165, .T. ) ;
#322 = VERTEX_POINT ( 'NONE', #164 ) ;
#323 = EDGE_CURVE ( 'NONE', #262, #262, #210, .T. ) ;
#324 = CYLINDRICAL_SURFACE ( 'NONE', #355, 0.4149999999999999200 ) ;
#325 = CARTESIAN_POINT ( 'NONE',  ( 0.0000000000000000000, 0.0000000000000000000, 0.0000000000000000000 ) ) ;
#326 = VERTEX_POINT ( 'NONE', #315 ) ;
#327 = ORIENTED_EDGE ( 'NONE', *, *, #188, .T. ) ;
#328 = CARTESIAN_POINT ( 'NONE',  ( 0.0000000000000000000, 0.0000000000000000000, 0.5000000000000000000 ) ) ;
#329 = AXIS2_PLACEMENT_3D ( 'NONE', #328, #378, #180 ) ;
#330 = LINE ( 'NONE', #74, #385 ) ;
#331 = DIRECTION ( 'NONE',  ( 0.0000000000000000000, 0.0000000000000000000, 1.000000000000000000 ) ) ;
#332 = ORIENTED_EDGE ( 'NONE', *, *, #363, .T. ) ;
#333 = DATE_AND_TIME ( #418, #400 ) ;
#334 = CYLINDRICAL_SURFACE ( 'NONE', #86, 0.4899999999999999900 ) ;
#335 = AXIS2_PLACEMENT_3D ( 'NONE', #325, #331, #133 ) ;
#336 = ORIENTED_EDGE ( 'NONE', *, *, #76, .T. ) ;
#337 = PLANE ( 'NONE',  #347 ) ;
#338 = CALENDAR_DATE ( 2017, 16, 8 ) ;
#339 = CONICAL_SURFACE ( 'NONE', #278, 0.4150000000000000900, 0.7853981633974473900 ) ;
#340 = APPROVAL_ROLE ( '' ) ;
#341 = EDGE_CURVE ( 'NONE', #304, #417, #361, .T. ) ;
#342 = ADVANCED_FACE ( 'NONE', ( #242, #67 ), #306, .T. ) ;
#343 = DIRECTION ( 'NONE',  ( 0.0000000000000000000, 0.0000000000000000000, 1.000000000000000000 ) ) ;
#344 = ORIENTED_EDGE ( 'NONE', *, *, #116, .F. ) ;
#345 = CARTESIAN_POINT ( 'NONE',  ( 0.5499999999999999300, 0.0000000000000000000, 0.0000000000000000000 ) ) ;
#346 = LOCAL_TIME ( 11, 34, 34.00000000000000000, #7 ) ;
#347 = AXIS2_PLACEMENT_3D ( 'NONE', #29, #80, #99 ) ;
#348 = DIRECTION ( 'NONE',  ( 1.000000000000000000, 0.0000000000000000000, 0.0000000000000000000 ) ) ;
#349 = CALENDAR_DATE ( 2017, 16, 8 ) ;
#350 = ORIENTED_EDGE ( 'NONE', *, *, #341, .F. ) ;
#351 = ORIENTED_EDGE ( 'NONE', *, *, #323, .T. ) ;
#352 = CC_DESIGN_PERSON_AND_ORGANIZATION_ASSIGNMENT ( #182, #179, ( #55 ) ) ;
#353 = LINE ( 'NONE', #43, #142 ) ;
#354 = ORIENTED_EDGE ( 'NONE', *, *, #44, .F. ) ;
#355 = AXIS2_PLACEMENT_3D ( 'NONE', #286, #206, #283 ) ;
#356 = LOCAL_TIME ( 11, 34, 34.00000000000000000, #149 ) ;
#357 = EDGE_CURVE ( 'NONE', #326, #326, #217, .T. ) ;
#358 = CARTESIAN_POINT ( 'NONE',  ( -0.2923610781208743100, 0.6249999999999998900, -0.9630393700787401900 ) ) ;
#359 = ORIENTED_EDGE ( 'NONE', *, *, #2, .T. ) ;
#360 = ORIENTED_EDGE ( 'NONE', *, *, #357, .T. ) ;
#361 = LINE ( 'NONE', #26, #120 ) ;
#362 = DIRECTION ( 'NONE',  ( 1.000000000000000000, 0.0000000000000000000, 0.0000000000000000000 ) ) ;
#363 = EDGE_CURVE ( 'NONE', #322, #108, #353, .T. ) ;
#364 = ORIENTED_EDGE ( 'NONE', *, *, #232, .F. ) ;
#365 = MANIFOLD_SOLID_BREP ( 'Fillet1', #240 ) ;
#366 = EDGE_LOOP ( 'NONE', ( #91 ) ) ;
#367 = CARTESIAN_POINT ( 'NONE',  ( 0.0000000000000000000, 0.0000000000000000000, 1.286999999999999900 ) ) ;
#368 = DIRECTION ( 'NONE',  ( 1.000000000000000000, 0.0000000000000000000, 0.0000000000000000000 ) ) ;
#369 = APPROVAL_PERSON_ORGANIZATION ( #45, #200, #340 ) ;
#370 = FACE_OUTER_BOUND ( 'NONE', #18, .T. ) ;
#371 = DIRECTION ( 'NONE',  ( 1.000000000000000000, 0.0000000000000000000, 0.0000000000000000000 ) ) ;
#372 = DIRECTION ( 'NONE',  ( -0.0000000000000000000, -0.0000000000000000000, 1.000000000000000000 ) ) ;
#373 = FACE_BOUND ( 'NONE', #37, .T. ) ;
#374 = DIRECTION ( 'NONE',  ( 1.000000000000000000, 0.0000000000000000000, 0.0000000000000000000 ) ) ;
#375 = CC_DESIGN_PERSON_AND_ORGANIZATION_ASSIGNMENT ( #40, #249, ( #174 ) ) ;
#376 = DIRECTION ( 'NONE',  ( 1.000000000000000000, 0.0000000000000000000, -0.0000000000000000000 ) ) ;
#377 = CARTESIAN_POINT ( 'NONE',  ( -0.4899999999999999900, 0.0000000000000000000, -0.9629999999999999700 ) ) ;
#378 = DIRECTION ( 'NONE',  ( -0.0000000000000000000, -0.0000000000000000000, -1.000000000000000000 ) ) ;
#379 = VERTEX_POINT ( 'NONE', #282 ) ;
#380 = CARTESIAN_POINT ( 'NONE',  ( 0.0000000000000000000, 0.0000000000000000000, 0.0000000000000000000 ) ) ;
#381 = ORIENTED_EDGE ( 'NONE', *, *, #41, .T. ) ;
#382 = EDGE_CURVE ( 'NONE', #304, #267, #330, .T. ) ;
#383 = EDGE_LOOP ( 'NONE', ( #381 ) ) ;
#384 = PERSON_AND_ORGANIZATION ( #252, #122 ) ;
#385 = VECTOR ( 'NONE', #56, 39.37007874015748100 ) ;
#386 = DIRECTION ( 'NONE',  ( 1.000000000000000000, 0.0000000000000000000, 0.0000000000000000000 ) ) ;
#387 = DIRECTION ( 'NONE',  ( -0.0000000000000000000, -0.0000000000000000000, 1.000000000000000000 ) ) ;
#388 = ORIENTED_EDGE ( 'NONE', *, *, #6, .F. ) ;
#389 = LENGTH_MEASURE_WITH_UNIT ( LENGTH_MEASURE( 0.02539999999999999900 ), #287 );
#390 = DIRECTION ( 'NONE',  ( 0.0000000000000000000, 0.0000000000000000000, 1.000000000000000000 ) ) ;
#391 = EDGE_LOOP ( 'NONE', ( #413 ) ) ;
#392 = FACE_OUTER_BOUND ( 'NONE', #253, .T. ) ;
#393 = DIRECTION ( 'NONE',  ( -0.0000000000000000000, -0.0000000000000000000, -1.000000000000000000 ) ) ;
#394 = CIRCLE ( 'NONE', #320, 0.6899999999999998400 ) ;
#395 = MECHANICAL_CONTEXT ( 'NONE', #301, 'mechanical' ) ;
#396 = CC_DESIGN_APPROVAL ( #200, ( #174 ) ) ;
#397 = FACE_OUTER_BOUND ( 'NONE', #13, .T. ) ;
#398 = CIRCLE ( 'NONE', #256, 0.5200000000000000200 ) ;
#399 = DIRECTION ( 'NONE',  ( 1.000000000000000000, 0.0000000000000000000, 0.0000000000000000000 ) ) ;
#400 = LOCAL_TIME ( 11, 34, 34.00000000000000000, #82 ) ;
#401 = APPROVAL_ROLE ( '' ) ;
#402 = AXIS2_PLACEMENT_3D ( 'NONE', #186, #296, #405 ) ;
#403 = DIRECTION ( 'NONE',  ( 1.000000000000000000, 0.0000000000000000000, 0.0000000000000000000 ) ) ;
#404 = DIRECTION ( 'NONE',  ( 1.000000000000000000, 0.0000000000000000000, 0.0000000000000000000 ) ) ;
#405 = DIRECTION ( 'NONE',  ( -1.000000000000000000, 0.0000000000000000000, 0.0000000000000000000 ) ) ;
#406 = EDGE_CURVE ( 'NONE', #379, #322, #93, .T. ) ;
#407 = FACE_BOUND ( 'NONE', #52, .T. ) ;
#408 = DIMENSIONAL_EXPONENTS ( 1.000000000000000000, 0.0000000000000000000, 0.0000000000000000000, 0.0000000000000000000, 0.0000000000000000000, 0.0000000000000000000, 0.0000000000000000000 ) ;
#409 = DIRECTION ( 'NONE',  ( 0.0000000000000000000, 0.0000000000000000000, 1.000000000000000000 ) ) ;
#410 = ADVANCED_FACE ( 'NONE', ( #407, #72 ), #139, .T. ) ;
#411 = EDGE_LOOP ( 'NONE', ( #359, #327, #27, #88 ) ) ;
#412 = APPLICATION_PROTOCOL_DEFINITION ( 'international standard', 'config_control_design', 1994, #301 ) ;
#413 = ORIENTED_EDGE ( 'NONE', *, *, #165, .F. ) ;
#414 = CARTESIAN_POINT ( 'NONE',  ( -0.2923610781208743100, -0.6249999999999998900, 0.5000000000000000000 ) ) ;
#415 = AXIS2_PLACEMENT_3D ( 'NONE', #290, #115, #308 ) ;
#416 = ORIENTED_EDGE ( 'NONE', *, *, #357, .F. ) ;
#417 = VERTEX_POINT ( 'NONE', #414 ) ;
#418 = CALENDAR_DATE ( 2017, 16, 8 ) ;
ENDSEC;
END-ISO-10303-21;
