ISO-10303-21;
HEADER;
FILE_DESCRIPTION (( 'STEP AP203' ),
    '1' );
FILE_NAME ('5529020.STEP',
    '2017-08-16T19:08:56',
    ( '' ),
    ( '' ),
    'SwSTEP 2.0',
    'SolidWorks 2017',
    '' );
FILE_SCHEMA (( 'CONFIG_CONTROL_DESIGN' ));
ENDSEC;

DATA;
#1 = DIRECTION ( 'NONE',  ( -0.0000000000000000000, 1.000000000000000000, -0.0000000000000000000 ) ) ;
#2 = DIRECTION ( 'NONE',  ( 0.0000000000000000000, -1.000000000000000000, 0.0000000000000000000 ) ) ;
#3 = APPROVAL_STATUS ( 'not_yet_approved' ) ;
#4 = VERTEX_POINT ( 'NONE', #72 ) ;
#5 = ADVANCED_FACE ( 'NONE', ( #28, #232 ), #207, .F. ) ;
#6 = FACE_OUTER_BOUND ( 'NONE', #201, .T. ) ;
#7 = FACE_OUTER_BOUND ( 'NONE', #292, .T. ) ;
#8 = CARTESIAN_POINT ( 'NONE',  ( -0.7382272264860296800, 1.079999999999999800, -1.696325606148402700 ) ) ;
#9 = CIRCLE ( 'NONE', #24, 1.164999999999999800 ) ;
#10 = EDGE_LOOP ( 'NONE', ( #286 ) ) ;
#11 = AXIS2_PLACEMENT_3D ( 'NONE', #69, #255, #26 ) ;
#12 = CARTESIAN_POINT ( 'NONE',  ( -3.864476908121701400E-016, -0.2800000000000000300, -1.696325606148402900 ) ) ;
#13 = EDGE_CURVE ( 'NONE', #258, #227, #48, .T. ) ;
#14 = VECTOR ( 'NONE', #347, 39.37007874015748100 ) ;
#15 = CARTESIAN_POINT ( 'NONE',  ( 0.0000000000000000000, -0.2800000000000000300, 0.0000000000000000000 ) ) ;
#16 = CARTESIAN_POINT ( 'NONE',  ( 0.0000000000000000000, 1.079999999999999800, 0.0000000000000000000 ) ) ;
#17 = EDGE_LOOP ( 'NONE', ( #275 ) ) ;
#18 = APPROVAL_PERSON_ORGANIZATION ( #59, #163, #293 ) ;
#19 = CARTESIAN_POINT ( 'NONE',  ( -0.7382272264860300100, 1.000000000000000000, 1.696325606148402700 ) ) ;
#20 = EDGE_LOOP ( 'NONE', ( #325 ) ) ;
#21 = DATE_AND_TIME ( #311, #339 ) ;
#22 = VECTOR ( 'NONE', #218, 39.37007874015748100 ) ;
#23 = PRODUCT_DEFINITION_FORMATION_WITH_SPECIFIED_SOURCE ( 'ANY', '', #109, .NOT_KNOWN. ) ;
#24 = AXIS2_PLACEMENT_3D ( 'NONE', #307, #178, #205 ) ;
#25 = PERSON ( 'UNSPECIFIED', 'UNSPECIFIED', 'UNSPECIFIED', ('UNSPECIFIED'), ('UNSPECIFIED'), ('UNSPECIFIED') ) ;
#26 = DIRECTION ( 'NONE',  ( 0.0000000000000000000, 0.0000000000000000000, -1.000000000000000000 ) ) ;
#27 = APPLICATION_CONTEXT ( 'configuration controlled 3d designs of mechanical parts and assemblies' ) ;
#28 = FACE_OUTER_BOUND ( 'NONE', #256, .T. ) ;
#29 = ORIENTED_EDGE ( 'NONE', *, *, #172, .F. ) ;
#30 = LOCAL_TIME ( 15, 8, 56.00000000000000000, #119 ) ;
#31 = CARTESIAN_POINT ( 'NONE',  ( 0.7382272264860300100, 1.000000000000000000, 1.696325606148402700 ) ) ;
#32 = AXIS2_PLACEMENT_3D ( 'NONE', #157, #184, #298 ) ;
#33 = FACE_OUTER_BOUND ( 'NONE', #20, .T. ) ;
#34 = ORIENTED_EDGE ( 'NONE', *, *, #328, .T. ) ;
#35 = DIRECTION ( 'NONE',  ( 0.0000000000000000000, 0.0000000000000000000, -1.000000000000000000 ) ) ;
#36 = PERSON_AND_ORGANIZATION ( #25, #52 ) ;
#37 = CALENDAR_DATE ( 2017, 16, 8 ) ;
#38 = DIRECTION ( 'NONE',  ( 0.0000000000000000000, 1.000000000000000000, 0.0000000000000000000 ) ) ;
#39 = DIRECTION ( 'NONE',  ( 0.0000000000000000000, -0.0000000000000000000, 1.000000000000000000 ) ) ;
#40 = AXIS2_PLACEMENT_3D ( 'NONE', #277, #369, #123 ) ;
#41 = EDGE_LOOP ( 'NONE', ( #251 ) ) ;
#42 = VERTEX_POINT ( 'NONE', #8 ) ;
#43 = CC_DESIGN_DATE_AND_TIME_ASSIGNMENT ( #334, #169, ( #81 ) ) ;
#44 = DIRECTION ( 'NONE',  ( 0.0000000000000000000, 0.0000000000000000000, 1.000000000000000000 ) ) ;
#45 = CONICAL_SURFACE ( 'NONE', #269, 1.224325606148402900, 0.05235987755983038900 ) ;
#46 = FACE_BOUND ( 'NONE', #10, .T. ) ;
#47 = CARTESIAN_POINT ( 'NONE',  ( 0.0000000000000000000, 1.080000000000000300, 1.224325606148402900 ) ) ;
#48 = CIRCLE ( 'NONE', #32, 1.850000000000000500 ) ;
#49 = PERSON_AND_ORGANIZATION ( #25, #52 ) ;
#50 = DIRECTION ( 'NONE',  ( 0.0000000000000000000, -0.0000000000000000000, -1.000000000000000000 ) ) ;
#51 = DIRECTION ( 'NONE',  ( 0.0000000000000000000, -1.000000000000000000, 0.0000000000000000000 ) ) ;
#52 = ORGANIZATION ( 'UNSPECIFIED', 'UNSPECIFIED', '' ) ;
#53 = PLANE ( 'NONE',  #140 ) ;
#54 = APPROVAL_DATE_TIME ( #159, #163 ) ;
#55 = DIRECTION ( 'NONE',  ( 0.0000000000000000000, 0.0000000000000000000, 1.000000000000000000 ) ) ;
#56 = CARTESIAN_POINT ( 'NONE',  ( 0.0000000000000000000, -0.05199999999999960900, -1.121999999999999900 ) ) ;
#57 = VECTOR ( 'NONE', #267, 39.37007874015748100 ) ;
#58 = VECTOR ( 'NONE', #266, 39.37007874015748100 ) ;
#59 = PERSON_AND_ORGANIZATION ( #25, #52 ) ;
#60 = ADVANCED_FACE ( 'NONE', ( #139, #199 ), #118, .F. ) ;
#61 = DIRECTION ( 'NONE',  ( 0.0000000000000000000, 0.0000000000000000000, -1.000000000000000000 ) ) ;
#62 = ORIENTED_EDGE ( 'NONE', *, *, #336, .T. ) ;
#63 = CC_DESIGN_DATE_AND_TIME_ASSIGNMENT ( #194, #160, ( #368 ) ) ;
#64 = VERTEX_POINT ( 'NONE', #104 ) ;
#65 = PERSON_AND_ORGANIZATION ( #25, #52 ) ;
#66 = VERTEX_POINT ( 'NONE', #120 ) ;
#67 = ORIENTED_EDGE ( 'NONE', *, *, #352, .T. ) ;
#68 = PERSON_AND_ORGANIZATION ( #25, #52 ) ;
#69 = CARTESIAN_POINT ( 'NONE',  ( 0.0000000000000000000, -1.669999999999999900, 0.0000000000000000000 ) ) ;
#70 = AXIS2_PLACEMENT_3D ( 'NONE', #80, #71, #366 ) ;
#71 = DIRECTION ( 'NONE',  ( -0.0000000000000000000, -1.000000000000000000, -0.0000000000000000000 ) ) ;
#72 = CARTESIAN_POINT ( 'NONE',  ( -0.7382272264860300100, 1.079999999999999800, 1.696325606148402700 ) ) ;
#73 = VERTEX_POINT ( 'NONE', #47 ) ;
#74 = VERTEX_POINT ( 'NONE', #124 ) ;
#75 = CALENDAR_DATE ( 2017, 16, 8 ) ;
#76 = ADVANCED_FACE ( 'NONE', ( #152, #127 ), #170, .T. ) ;
#77 = CARTESIAN_POINT ( 'NONE',  ( 0.0000000000000000000, -1.669999999999999900, -1.121999999999999900 ) ) ;
#78 = PLANE ( 'NONE',  #135 ) ;
#79 = VERTEX_POINT ( 'NONE', #77 ) ;
#80 = CARTESIAN_POINT ( 'NONE',  ( 0.0000000000000000000, 1.000000000000000000, 0.0000000000000000000 ) ) ;
#81 = SECURITY_CLASSIFICATION ( '', '', #100 ) ;
#82 = PRODUCT_RELATED_PRODUCT_CATEGORY ( 'detail', '', ( #109 ) ) ;
#83 = EDGE_LOOP ( 'NONE', ( #29, #110, #285, #287 ) ) ;
#84 = VERTEX_POINT ( 'NONE', #215 ) ;
#85 = CC_DESIGN_APPROVAL ( #163, ( #81 ) ) ;
#86 = CYLINDRICAL_SURFACE ( 'NONE', #198, 1.240000000000000000 ) ;
#87 = APPROVAL_DATE_TIME ( #106, #114 ) ;
#88 = ORIENTED_EDGE ( 'NONE', *, *, #336, .F. ) ;
#89 = ORIENTED_EDGE ( 'NONE', *, *, #319, .F. ) ;
#90 = LOCAL_TIME ( 15, 8, 56.00000000000000000, #320 ) ;
#91 = AXIS2_PLACEMENT_3D ( 'NONE', #150, #2, #344 ) ;
#92 =( LENGTH_UNIT ( ) NAMED_UNIT ( * ) SI_UNIT ( $, .METRE. ) );
#93 = CYLINDRICAL_SURFACE ( 'NONE', #70, 1.850000000000000500 ) ;
#94 = PLANE ( 'NONE',  #236 ) ;
#95 = CC_DESIGN_PERSON_AND_ORGANIZATION_ASSIGNMENT ( #49, #115, ( #368 ) ) ;
#96 = CC_DESIGN_PERSON_AND_ORGANIZATION_ASSIGNMENT ( #68, #145, ( #23 ) ) ;
#97 = LINE ( 'NONE', #189, #57 ) ;
#98 = COORDINATED_UNIVERSAL_TIME_OFFSET ( 5, 0, .BEHIND. ) ;
#99 = CARTESIAN_POINT ( 'NONE',  ( 0.0000000000000000000, 1.079999999999999800, 1.696325606148402700 ) ) ;
#100 = SECURITY_CLASSIFICATION_LEVEL ( 'unclassified' ) ;
#101 = VECTOR ( 'NONE', #216, 39.37007874015748100 ) ;
#102 = CARTESIAN_POINT ( 'NONE',  ( 0.0000000000000000000, 1.080000000000000300, 0.0000000000000000000 ) ) ;
#103 = EDGE_LOOP ( 'NONE', ( #263 ) ) ;
#104 = CARTESIAN_POINT ( 'NONE',  ( 0.0000000000000000000, -1.669999999999999900, -1.240000000000000000 ) ) ;
#105 = FACE_OUTER_BOUND ( 'NONE', #83, .T. ) ;
#106 = DATE_AND_TIME ( #75, #259 ) ;
#107 = DIRECTION ( 'NONE',  ( 0.0000000000000000000, 1.000000000000000000, 0.0000000000000000000 ) ) ;
#108 = CARTESIAN_POINT ( 'NONE',  ( 0.0000000000000000000, 0.0000000000000000000, 0.0000000000000000000 ) ) ;
#109 = PRODUCT ( '5529020', '5529020', '', ( #270 ) ) ;
#110 = ORIENTED_EDGE ( 'NONE', *, *, #340, .T. ) ;
#111 = CIRCLE ( 'NONE', #202, 1.850000000000000500 ) ;
#112 = ADVANCED_FACE ( 'NONE', ( #105 ), #93, .T. ) ;
#113 = CC_DESIGN_APPROVAL ( #114, ( #368 ) ) ;
#114 = APPROVAL ( #372, 'UNSPECIFIED' ) ;
#115 = PERSON_AND_ORGANIZATION_ROLE ( 'creator' ) ;
#116 = DIRECTION ( 'NONE',  ( -0.0000000000000000000, -1.000000000000000000, -0.0000000000000000000 ) ) ;
#117 = CIRCLE ( 'NONE', #242, 1.121999999999999900 ) ;
#118 = CYLINDRICAL_SURFACE ( 'NONE', #364, 1.121999999999999900 ) ;
#119 = COORDINATED_UNIVERSAL_TIME_OFFSET ( 5, 0, .BEHIND. ) ;
#120 = CARTESIAN_POINT ( 'NONE',  ( 0.0000000000000000000, -0.05199999999999960900, 1.164999999999999800 ) ) ;
#121 = APPROVAL_ROLE ( '' ) ;
#122 = DIRECTION ( 'NONE',  ( 0.0000000000000000000, -0.0000000000000000000, -1.000000000000000000 ) ) ;
#123 = DIRECTION ( 'NONE',  ( 0.0000000000000000000, 0.0000000000000000000, -1.000000000000000000 ) ) ;
#124 = CARTESIAN_POINT ( 'NONE',  ( 0.0000000000000000000, -0.4000000000000000800, -1.240000000000000000 ) ) ;
#125 = EDGE_CURVE ( 'NONE', #42, #331, #301, .T. ) ;
#126 = DIRECTION ( 'NONE',  ( 0.0000000000000000000, 0.0000000000000000000, -1.000000000000000000 ) ) ;
#127 = FACE_BOUND ( 'NONE', #41, .T. ) ;
#128 = AXIS2_PLACEMENT_3D ( 'NONE', #337, #280, #300 ) ;
#129 = CARTESIAN_POINT ( 'NONE',  ( 0.7382272264860300100, 1.079999999999999800, 1.696325606148402700 ) ) ;
#130 = EDGE_LOOP ( 'NONE', ( #350 ) ) ;
#131 = AXIS2_PLACEMENT_3D ( 'NONE', #361, #203, #44 ) ;
#132 = FACE_OUTER_BOUND ( 'NONE', #206, .T. ) ;
#133 = CARTESIAN_POINT ( 'NONE',  ( 0.0000000000000000000, -1.669999999999999900, 0.0000000000000000000 ) ) ;
#134 = CARTESIAN_POINT ( 'NONE',  ( 0.0000000000000000000, 1.079999999999999800, 0.0000000000000000000 ) ) ;
#135 = AXIS2_PLACEMENT_3D ( 'NONE', #134, #38, #39 ) ;
#136 = PLANE ( 'NONE',  #303 ) ;
#137 = ADVANCED_FACE ( 'NONE', ( #211, #46 ), #78, .T. ) ;
#138 = LINE ( 'NONE', #247, #343 ) ;
#139 = FACE_OUTER_BOUND ( 'NONE', #250, .T. ) ;
#140 = AXIS2_PLACEMENT_3D ( 'NONE', #156, #173, #122 ) ;
#141 = CIRCLE ( 'NONE', #131, 1.224325606148402900 ) ;
#142 = CARTESIAN_POINT ( 'NONE',  ( 1.156237099466599400, -1.669999999999999900, 1.696325606148402700 ) ) ;
#143 = CIRCLE ( 'NONE', #11, 1.240000000000000000 ) ;
#144 = LENGTH_MEASURE_WITH_UNIT ( LENGTH_MEASURE( 0.02539999999999999900 ), #92 );
#145 = PERSON_AND_ORGANIZATION_ROLE ( 'design_supplier' ) ;
#146 = DIRECTION ( 'NONE',  ( 0.0000000000000000000, -1.000000000000000000, 0.0000000000000000000 ) ) ;
#147 = CIRCLE ( 'NONE', #219, 1.240000000000000000 ) ;
#148 = CALENDAR_DATE ( 2017, 16, 8 ) ;
#149 = ORIENTED_EDGE ( 'NONE', *, *, #329, .F. ) ;
#150 = CARTESIAN_POINT ( 'NONE',  ( 0.0000000000000000000, -0.2800000000000000300, 0.0000000000000000000 ) ) ;
#151 = CARTESIAN_POINT ( 'NONE',  ( 0.7382272264860289000, 1.079999999999999800, -1.696325606148403100 ) ) ;
#152 = FACE_OUTER_BOUND ( 'NONE', #262, .T. ) ;
#153 = CARTESIAN_POINT ( 'NONE',  ( 0.0000000000000000000, -0.4000000000000000800, 0.0000000000000000000 ) ) ;
#154 = CARTESIAN_POINT ( 'NONE',  ( 0.7382272264860300100, -0.2800000000000000300, 1.696325606148402700 ) ) ;
#155 = CC_DESIGN_SECURITY_CLASSIFICATION ( #81, ( #23 ) ) ;
#156 = CARTESIAN_POINT ( 'NONE',  ( -1.164999999999999800, -0.05199999999999961600, 0.0000000000000000000 ) ) ;
#157 = CARTESIAN_POINT ( 'NONE',  ( 0.0000000000000000000, 1.079999999999999800, 0.0000000000000000000 ) ) ;
#158 = APPROVAL_ROLE ( '' ) ;
#159 = DATE_AND_TIME ( #355, #326 ) ;
#160 = DATE_TIME_ROLE ( 'creation_date' ) ;
#161 = ORIENTED_EDGE ( 'NONE', *, *, #208, .F. ) ;
#162 = FACE_OUTER_BOUND ( 'NONE', #17, .T. ) ;
#163 = APPROVAL ( #3, 'UNSPECIFIED' ) ;
#164 = ADVANCED_FACE ( 'NONE', ( #182 ), #289, .F. ) ;
#165 = EDGE_CURVE ( 'NONE', #73, #73, #141, .T. ) ;
#166 = DIRECTION ( 'NONE',  ( 1.000000000000000000, 0.0000000000000000000, 0.0000000000000000000 ) ) ;
#167 = ADVANCED_FACE ( 'NONE', ( #7 ), #373, .T. ) ;
#168 = DIRECTION ( 'NONE',  ( 0.0000000000000000000, -1.000000000000000000, 0.0000000000000000000 ) ) ;
#169 = DATE_TIME_ROLE ( 'classification_date' ) ;
#170 = PLANE ( 'NONE',  #91 ) ;
#171 = VECTOR ( 'NONE', #166, 39.37007874015748100 ) ;
#172 = EDGE_CURVE ( 'NONE', #271, #304, #317, .T. ) ;
#173 = DIRECTION ( 'NONE',  ( 0.0000000000000000000, -1.000000000000000000, 0.0000000000000000000 ) ) ;
#174 = CC_DESIGN_PERSON_AND_ORGANIZATION_ASSIGNMENT ( #65, #376, ( #109 ) ) ;
#175 = DIRECTION ( 'NONE',  ( 0.0000000000000000000, -1.000000000000000000, 0.0000000000000000000 ) ) ;
#176 = SHAPE_DEFINITION_REPRESENTATION ( #221, #237 ) ;
#177 = CARTESIAN_POINT ( 'NONE',  ( -0.7382272264860296800, 1.000000000000000000, -1.696325606148402700 ) ) ;
#178 = DIRECTION ( 'NONE',  ( -0.0000000000000000000, 1.000000000000000000, -0.0000000000000000000 ) ) ;
#179 = CARTESIAN_POINT ( 'NONE',  ( 0.0000000000000000000, 1.079999999999999800, 0.0000000000000000000 ) ) ;
#180 = EDGE_CURVE ( 'NONE', #79, #79, #117, .T. ) ;
#181 = ORIENTED_EDGE ( 'NONE', *, *, #370, .T. ) ;
#182 = FACE_OUTER_BOUND ( 'NONE', #261, .T. ) ;
#183 = CARTESIAN_POINT ( 'NONE',  ( -0.7382272264860296800, -0.2800000000000000300, -1.696325606148402700 ) ) ;
#184 = DIRECTION ( 'NONE',  ( 0.0000000000000000000, 1.000000000000000000, 0.0000000000000000000 ) ) ;
#185 = DIRECTION ( 'NONE',  ( -1.000000000000000000, 0.0000000000000000000, 0.0000000000000000000 ) ) ;
#186 = AXIS2_PLACEMENT_3D ( 'NONE', #296, #209, #254 ) ;
#187 = ORIENTED_EDGE ( 'NONE', *, *, #310, .F. ) ;
#188 = DIRECTION ( 'NONE',  ( -1.000000000000000000, 0.0000000000000000000, 0.0000000000000000000 ) ) ;
#189 = CARTESIAN_POINT ( 'NONE',  ( 0.7382272264860289000, 1.000000000000000000, -1.696325606148403100 ) ) ;
#190 = MANIFOLD_SOLID_BREP ( 'Extrude6', #363 ) ;
#191 = EDGE_LOOP ( 'NONE', ( #67, #88, #306, #89 ) ) ;
#192 = PERSON_AND_ORGANIZATION_ROLE ( 'creator' ) ;
#193 = VERTEX_POINT ( 'NONE', #204 ) ;
#194 = DATE_AND_TIME ( #148, #30 ) ;
#195 = EDGE_CURVE ( 'NONE', #332, #332, #371, .T. ) ;
#196 = ORIENTED_EDGE ( 'NONE', *, *, #180, .F. ) ;
#197 = EDGE_LOOP ( 'NONE', ( #34 ) ) ;
#198 = AXIS2_PLACEMENT_3D ( 'NONE', #133, #345, #55 ) ;
#199 = FACE_OUTER_BOUND ( 'NONE', #233, .T. ) ;
#200 = ORIENTED_EDGE ( 'NONE', *, *, #13, .T. ) ;
#201 = EDGE_LOOP ( 'NONE', ( #244 ) ) ;
#202 = AXIS2_PLACEMENT_3D ( 'NONE', #16, #107, #282 ) ;
#203 = DIRECTION ( 'NONE',  ( -0.0000000000000000000, 1.000000000000000000, -0.0000000000000000000 ) ) ;
#204 = CARTESIAN_POINT ( 'NONE',  ( -0.7382272264860300100, -0.2800000000000000300, 1.696325606148402700 ) ) ;
#205 = DIRECTION ( 'NONE',  ( 0.0000000000000000000, 0.0000000000000000000, 1.000000000000000000 ) ) ;
#206 = EDGE_LOOP ( 'NONE', ( #268 ) ) ;
#207 = TOROIDAL_SURFACE ( 'NONE', #349, 1.359999999999999900, 0.1200000000000000000 ) ;
#208 = EDGE_CURVE ( 'NONE', #84, #84, #273, .T. ) ;
#209 = DIRECTION ( 'NONE',  ( 2.278145713367023300E-016, 0.0000000000000000000, 1.000000000000000000 ) ) ;
#210 = EDGE_LOOP ( 'NONE', ( #338, #295, #252, #200 ) ) ;
#211 = FACE_OUTER_BOUND ( 'NONE', #210, .T. ) ;
#212 = ORIENTED_EDGE ( 'NONE', *, *, #180, .T. ) ;
#213 = AXIS2_PLACEMENT_3D ( 'NONE', #374, #51, #61 ) ;
#214 =( GEOMETRIC_REPRESENTATION_CONTEXT ( 3 ) GLOBAL_UNCERTAINTY_ASSIGNED_CONTEXT ( ( #226 ) ) GLOBAL_UNIT_ASSIGNED_CONTEXT ( ( #249, #377, #283 ) ) REPRESENTATION_CONTEXT ( 'NONE', 'WORKASPACE' ) );
#215 = CARTESIAN_POINT ( 'NONE',  ( 0.0000000000000000000, -0.2800000000000000300, -1.359999999999999900 ) ) ;
#216 = DIRECTION ( 'NONE',  ( -1.000000000000000000, 0.0000000000000000000, 2.278145713367023300E-016 ) ) ;
#217 = ORIENTED_EDGE ( 'NONE', *, *, #354, .F. ) ;
#218 = DIRECTION ( 'NONE',  ( -0.0000000000000000000, -1.000000000000000000, -0.0000000000000000000 ) ) ;
#219 = AXIS2_PLACEMENT_3D ( 'NONE', #248, #146, #126 ) ;
#220 = DIRECTION ( 'NONE',  ( 0.0000000000000000000, -1.000000000000000000, 0.0000000000000000000 ) ) ;
#221 = PRODUCT_DEFINITION_SHAPE ( 'NONE', 'NONE',  #368 ) ;
#222 = FACE_OUTER_BOUND ( 'NONE', #197, .T. ) ;
#223 = ORIENTED_EDGE ( 'NONE', *, *, #195, .T. ) ;
#224 = ADVANCED_FACE ( 'NONE', ( #312, #33 ), #136, .T. ) ;
#225 = PERSON_AND_ORGANIZATION ( #25, #52 ) ;
#226 = UNCERTAINTY_MEASURE_WITH_UNIT (LENGTH_MEASURE( 1.000000000000000100E-005 ), #249, 'distance_accuracy_value', 'NONE');
#227 = VERTEX_POINT ( 'NONE', #151 ) ;
#228 = DIRECTION ( 'NONE',  ( 0.0000000000000000000, 0.0000000000000000000, -1.000000000000000000 ) ) ;
#229 = CIRCLE ( 'NONE', #230, 1.850000000000000500 ) ;
#230 = AXIS2_PLACEMENT_3D ( 'NONE', #294, #168, #333 ) ;
#231 = ORIENTED_EDGE ( 'NONE', *, *, #313, .F. ) ;
#232 = FACE_OUTER_BOUND ( 'NONE', #103, .T. ) ;
#233 = EDGE_LOOP ( 'NONE', ( #212 ) ) ;
#234 = APPROVAL ( #378, 'UNSPECIFIED' ) ;
#235 = APPLICATION_CONTEXT ( 'configuration controlled 3d designs of mechanical parts and assemblies' ) ;
#236 = AXIS2_PLACEMENT_3D ( 'NONE', #142, #309, #188 ) ;
#237 = ADVANCED_BREP_SHAPE_REPRESENTATION ( '5529020', ( #190, #335 ), #214 ) ;
#238 = CARTESIAN_POINT ( 'NONE',  ( 0.7382272264860289000, -0.2800000000000000300, -1.696325606148403100 ) ) ;
#239 = ORIENTED_EDGE ( 'NONE', *, *, #172, .T. ) ;
#240 = ADVANCED_FACE ( 'NONE', ( #359 ), #94, .F. ) ;
#241 = AXIS2_PLACEMENT_3D ( 'NONE', #15, #1, #253 ) ;
#242 = AXIS2_PLACEMENT_3D ( 'NONE', #342, #175, #35 ) ;
#243 = EDGE_LOOP ( 'NONE', ( #149 ) ) ;
#244 = ORIENTED_EDGE ( 'NONE', *, *, #299, .F. ) ;
#245 = EDGE_LOOP ( 'NONE', ( #196 ) ) ;
#246 = APPROVAL_DATE_TIME ( #21, #234 ) ;
#247 = CARTESIAN_POINT ( 'NONE',  ( -3.864476908121701400E-016, 1.079999999999999800, -1.696325606148402900 ) ) ;
#248 = CARTESIAN_POINT ( 'NONE',  ( 0.0000000000000000000, -0.4000000000000000800, 0.0000000000000000000 ) ) ;
#249 =( CONVERSION_BASED_UNIT ( 'INCH', #144 ) LENGTH_UNIT ( ) NAMED_UNIT ( #323 ) );
#250 = EDGE_LOOP ( 'NONE', ( #223 ) ) ;
#251 = ORIENTED_EDGE ( 'NONE', *, *, #208, .T. ) ;
#252 = ORIENTED_EDGE ( 'NONE', *, *, #352, .F. ) ;
#253 = DIRECTION ( 'NONE',  ( 0.0000000000000000000, 0.0000000000000000000, -1.000000000000000000 ) ) ;
#254 = DIRECTION ( 'NONE',  ( 1.000000000000000000, 0.0000000000000000000, -2.278145713367023300E-016 ) ) ;
#255 = DIRECTION ( 'NONE',  ( 0.0000000000000000000, -1.000000000000000000, 0.0000000000000000000 ) ) ;
#256 = EDGE_LOOP ( 'NONE', ( #161 ) ) ;
#257 = ORIENTED_EDGE ( 'NONE', *, *, #125, .F. ) ;
#258 = VERTEX_POINT ( 'NONE', #129 ) ;
#259 = LOCAL_TIME ( 15, 8, 56.00000000000000000, #321 ) ;
#260 = ADVANCED_FACE ( 'NONE', ( #222, #6 ), #86, .T. ) ;
#261 = EDGE_LOOP ( 'NONE', ( #288, #276, #281, #257 ) ) ;
#262 = EDGE_LOOP ( 'NONE', ( #231, #239, #217, #181 ) ) ;
#263 = ORIENTED_EDGE ( 'NONE', *, *, #328, .F. ) ;
#264 = ORIENTED_EDGE ( 'NONE', *, *, #125, .T. ) ;
#265 = APPROVAL_PERSON_ORGANIZATION ( #36, #114, #121 ) ;
#266 = DIRECTION ( 'NONE',  ( -0.0000000000000000000, -1.000000000000000000, -0.0000000000000000000 ) ) ;
#267 = DIRECTION ( 'NONE',  ( 0.0000000000000000000, 1.000000000000000000, 0.0000000000000000000 ) ) ;
#268 = ORIENTED_EDGE ( 'NONE', *, *, #329, .T. ) ;
#269 = AXIS2_PLACEMENT_3D ( 'NONE', #102, #279, #353 ) ;
#270 = MECHANICAL_CONTEXT ( 'NONE', #27, 'mechanical' ) ;
#271 = VERTEX_POINT ( 'NONE', #238 ) ;
#272 = DIRECTION ( 'NONE',  ( 0.0000000000000000000, -1.000000000000000000, 0.0000000000000000000 ) ) ;
#273 = CIRCLE ( 'NONE', #241, 1.359999999999999900 ) ;
#274 = ORIENTED_EDGE ( 'NONE', *, *, #370, .F. ) ;
#275 = ORIENTED_EDGE ( 'NONE', *, *, #165, .T. ) ;
#276 = ORIENTED_EDGE ( 'NONE', *, *, #340, .F. ) ;
#277 = CARTESIAN_POINT ( 'NONE',  ( 0.0000000000000000000, -0.05199999999999960900, 0.0000000000000000000 ) ) ;
#278 = CARTESIAN_POINT ( 'NONE',  ( 0.0000000000000000000, -0.2800000000000000300, 1.696325606148402700 ) ) ;
#279 = DIRECTION ( 'NONE',  ( -0.0000000000000000000, 1.000000000000000000, -0.0000000000000000000 ) ) ;
#280 = DIRECTION ( 'NONE',  ( -0.0000000000000000000, -1.000000000000000000, -0.0000000000000000000 ) ) ;
#281 = ORIENTED_EDGE ( 'NONE', *, *, #313, .T. ) ;
#282 = DIRECTION ( 'NONE',  ( 0.0000000000000000000, 0.0000000000000000000, 1.000000000000000000 ) ) ;
#283 =( NAMED_UNIT ( * ) SI_UNIT ( $, .STERADIAN. ) SOLID_ANGLE_UNIT ( ) );
#284 = LINE ( 'NONE', #31, #58 ) ;
#285 = ORIENTED_EDGE ( 'NONE', *, *, #13, .F. ) ;
#286 = ORIENTED_EDGE ( 'NONE', *, *, #165, .F. ) ;
#287 = ORIENTED_EDGE ( 'NONE', *, *, #319, .T. ) ;
#288 = ORIENTED_EDGE ( 'NONE', *, *, #357, .T. ) ;
#289 = PLANE ( 'NONE',  #186 ) ;
#290 = DIRECTION ( 'NONE',  ( 1.000000000000000000, 0.0000000000000000000, 0.0000000000000000000 ) ) ;
#291 = LINE ( 'NONE', #278, #171 ) ;
#292 = EDGE_LOOP ( 'NONE', ( #187, #264, #274, #62 ) ) ;
#293 = APPROVAL_ROLE ( '' ) ;
#294 = CARTESIAN_POINT ( 'NONE',  ( 0.0000000000000000000, -0.2800000000000000300, 0.0000000000000000000 ) ) ;
#295 = ORIENTED_EDGE ( 'NONE', *, *, #310, .T. ) ;
#296 = CARTESIAN_POINT ( 'NONE',  ( 1.156237099466598900, -1.669999999999999900, -1.696325606148403100 ) ) ;
#297 = COORDINATED_UNIVERSAL_TIME_OFFSET ( 5, 0, .BEHIND. ) ;
#298 = DIRECTION ( 'NONE',  ( 0.0000000000000000000, 0.0000000000000000000, 1.000000000000000000 ) ) ;
#299 = EDGE_CURVE ( 'NONE', #64, #64, #143, .T. ) ;
#300 = DIRECTION ( 'NONE',  ( 0.0000000000000000000, 0.0000000000000000000, -1.000000000000000000 ) ) ;
#301 = LINE ( 'NONE', #177, #22 ) ;
#302 = DIRECTION ( 'NONE',  ( 1.000000000000000000, 0.0000000000000000000, -2.278145713367023300E-016 ) ) ;
#303 = AXIS2_PLACEMENT_3D ( 'NONE', #346, #220, #50 ) ;
#304 = VERTEX_POINT ( 'NONE', #154 ) ;
#305 = APPROVAL_PERSON_ORGANIZATION ( #360, #234, #158 ) ;
#306 = ORIENTED_EDGE ( 'NONE', *, *, #354, .T. ) ;
#307 = CARTESIAN_POINT ( 'NONE',  ( 0.0000000000000000000, -0.05199999999999960900, 0.0000000000000000000 ) ) ;
#308 = CC_DESIGN_PERSON_AND_ORGANIZATION_ASSIGNMENT ( #225, #192, ( #23 ) ) ;
#309 = DIRECTION ( 'NONE',  ( -0.0000000000000000000, 0.0000000000000000000, -1.000000000000000000 ) ) ;
#310 = EDGE_CURVE ( 'NONE', #42, #4, #111, .T. ) ;
#311 = CALENDAR_DATE ( 2017, 16, 8 ) ;
#312 = FACE_BOUND ( 'NONE', #245, .T. ) ;
#313 = EDGE_CURVE ( 'NONE', #271, #331, #367, .T. ) ;
#314 = APPLICATION_PROTOCOL_DEFINITION ( 'international standard', 'config_control_design', 1994, #27 ) ;
#315 = DESIGN_CONTEXT ( 'detailed design', #235, 'design' ) ;
#316 = APPLICATION_PROTOCOL_DEFINITION ( 'international standard', 'config_control_design', 1994, #235 ) ;
#317 = CIRCLE ( 'NONE', #213, 1.850000000000000500 ) ;
#318 = VECTOR ( 'NONE', #185, 39.37007874015748100 ) ;
#319 = EDGE_CURVE ( 'NONE', #258, #304, #284, .T. ) ;
#320 = COORDINATED_UNIVERSAL_TIME_OFFSET ( 5, 0, .BEHIND. ) ;
#321 = COORDINATED_UNIVERSAL_TIME_OFFSET ( 5, 0, .BEHIND. ) ;
#322 = CC_DESIGN_APPROVAL ( #234, ( #23 ) ) ;
#323 = DIMENSIONAL_EXPONENTS ( 1.000000000000000000, 0.0000000000000000000, 0.0000000000000000000, 0.0000000000000000000, 0.0000000000000000000, 0.0000000000000000000, 0.0000000000000000000 ) ;
#324 = ADVANCED_FACE ( 'NONE', ( #351, #162 ), #45, .F. ) ;
#325 = ORIENTED_EDGE ( 'NONE', *, *, #299, .T. ) ;
#326 = LOCAL_TIME ( 15, 8, 56.00000000000000000, #297 ) ;
#327 = PERSON_AND_ORGANIZATION ( #25, #52 ) ;
#328 = EDGE_CURVE ( 'NONE', #74, #74, #147, .T. ) ;
#329 = EDGE_CURVE ( 'NONE', #66, #66, #9, .T. ) ;
#330 = FACE_BOUND ( 'NONE', #130, .T. ) ;
#331 = VERTEX_POINT ( 'NONE', #183 ) ;
#332 = VERTEX_POINT ( 'NONE', #56 ) ;
#333 = DIRECTION ( 'NONE',  ( 0.0000000000000000000, 0.0000000000000000000, -1.000000000000000000 ) ) ;
#334 = DATE_AND_TIME ( #37, #90 ) ;
#335 = AXIS2_PLACEMENT_3D ( 'NONE', #108, #341, #290 ) ;
#336 = EDGE_CURVE ( 'NONE', #193, #4, #362, .T. ) ;
#337 = CARTESIAN_POINT ( 'NONE',  ( 0.0000000000000000000, 1.000000000000000000, 0.0000000000000000000 ) ) ;
#338 = ORIENTED_EDGE ( 'NONE', *, *, #357, .F. ) ;
#339 = LOCAL_TIME ( 15, 8, 56.00000000000000000, #98 ) ;
#340 = EDGE_CURVE ( 'NONE', #271, #227, #97, .T. ) ;
#341 = DIRECTION ( 'NONE',  ( 0.0000000000000000000, 0.0000000000000000000, 1.000000000000000000 ) ) ;
#342 = CARTESIAN_POINT ( 'NONE',  ( 0.0000000000000000000, -1.669999999999999900, 0.0000000000000000000 ) ) ;
#343 = VECTOR ( 'NONE', #302, 39.37007874015748100 ) ;
#344 = DIRECTION ( 'NONE',  ( 0.0000000000000000000, -0.0000000000000000000, -1.000000000000000000 ) ) ;
#345 = DIRECTION ( 'NONE',  ( -0.0000000000000000000, 1.000000000000000000, -0.0000000000000000000 ) ) ;
#346 = CARTESIAN_POINT ( 'NONE',  ( 0.0000000000000000000, -1.669999999999999900, 0.0000000000000000000 ) ) ;
#347 = DIRECTION ( 'NONE',  ( 0.0000000000000000000, 1.000000000000000000, 0.0000000000000000000 ) ) ;
#348 = PERSON_AND_ORGANIZATION_ROLE ( 'classification_officer' ) ;
#349 = AXIS2_PLACEMENT_3D ( 'NONE', #153, #272, #228 ) ;
#350 = ORIENTED_EDGE ( 'NONE', *, *, #195, .F. ) ;
#351 = FACE_BOUND ( 'NONE', #243, .T. ) ;
#352 = EDGE_CURVE ( 'NONE', #258, #4, #365, .T. ) ;
#353 = DIRECTION ( 'NONE',  ( 0.0000000000000000000, 0.0000000000000000000, 1.000000000000000000 ) ) ;
#354 = EDGE_CURVE ( 'NONE', #193, #304, #291, .T. ) ;
#355 = CALENDAR_DATE ( 2017, 16, 8 ) ;
#356 = ADVANCED_FACE ( 'NONE', ( #132, #330 ), #53, .F. ) ;
#357 = EDGE_CURVE ( 'NONE', #42, #227, #138, .T. ) ;
#358 = CC_DESIGN_PERSON_AND_ORGANIZATION_ASSIGNMENT ( #327, #348, ( #81 ) ) ;
#359 = FACE_OUTER_BOUND ( 'NONE', #191, .T. ) ;
#360 = PERSON_AND_ORGANIZATION ( #25, #52 ) ;
#361 = CARTESIAN_POINT ( 'NONE',  ( 0.0000000000000000000, 1.080000000000000300, 0.0000000000000000000 ) ) ;
#362 = LINE ( 'NONE', #19, #14 ) ;
#363 = CLOSED_SHELL ( 'NONE', ( #167, #76, #112, #260, #224, #5, #137, #60, #356, #324, #240, #164 ) ) ;
#364 = AXIS2_PLACEMENT_3D ( 'NONE', #179, #116, #375 ) ;
#365 = LINE ( 'NONE', #99, #318 ) ;
#366 = DIRECTION ( 'NONE',  ( 0.0000000000000000000, 0.0000000000000000000, -1.000000000000000000 ) ) ;
#367 = LINE ( 'NONE', #12, #101 ) ;
#368 = PRODUCT_DEFINITION ( 'UNKNOWN', '', #23, #315 ) ;
#369 = DIRECTION ( 'NONE',  ( -0.0000000000000000000, 1.000000000000000000, -0.0000000000000000000 ) ) ;
#370 = EDGE_CURVE ( 'NONE', #193, #331, #229, .T. ) ;
#371 = CIRCLE ( 'NONE', #40, 1.121999999999999900 ) ;
#372 = APPROVAL_STATUS ( 'not_yet_approved' ) ;
#373 = CYLINDRICAL_SURFACE ( 'NONE', #128, 1.850000000000000500 ) ;
#374 = CARTESIAN_POINT ( 'NONE',  ( 0.0000000000000000000, -0.2800000000000000300, 0.0000000000000000000 ) ) ;
#375 = DIRECTION ( 'NONE',  ( 0.0000000000000000000, 0.0000000000000000000, -1.000000000000000000 ) ) ;
#376 = PERSON_AND_ORGANIZATION_ROLE ( 'design_owner' ) ;
#377 =( NAMED_UNIT ( * ) PLANE_ANGLE_UNIT ( ) SI_UNIT ( $, .RADIAN. ) );
#378 = APPROVAL_STATUS ( 'not_yet_approved' ) ;
ENDSEC;
END-ISO-10303-21;
