ISO-10303-21;
HEADER;
FILE_DESCRIPTION (( 'STEP AP203' ),
    '1' );
FILE_NAME ('5529015.STEP',
    '2017-08-16T19:03:35',
    ( '' ),
    ( '' ),
    'SwSTEP 2.0',
    'SolidWorks 2017',
    '' );
FILE_SCHEMA (( 'CONFIG_CONTROL_DESIGN' ));
ENDSEC;

DATA;
#1 = DIRECTION ( 'NONE',  ( 1.000000000000000000, 0.0000000000000000000, 0.0000000000000000000 ) ) ;
#2 = DIRECTION ( 'NONE',  ( 0.0000000000000000000, 0.0000000000000000000, -1.000000000000000000 ) ) ;
#3 = EDGE_CURVE ( 'NONE', #144, #144, #169, .T. ) ;
#4 = EDGE_LOOP ( 'NONE', ( #212 ) ) ;
#5 = DIRECTION ( 'NONE',  ( 0.0000000000000000000, 0.0000000000000000000, 1.000000000000000000 ) ) ;
#6 = CARTESIAN_POINT ( 'NONE',  ( 0.0000000000000000000, -1.669999999999999900, 0.0000000000000000000 ) ) ;
#7 = EDGE_LOOP ( 'NONE', ( #354 ) ) ;
#8 = DATE_AND_TIME ( #137, #178 ) ;
#9 = EDGE_LOOP ( 'NONE', ( #273, #60, #126, #112 ) ) ;
#10 = APPLICATION_CONTEXT ( 'configuration controlled 3d designs of mechanical parts and assemblies' ) ;
#11 = DIRECTION ( 'NONE',  ( 0.0000000000000000000, -1.000000000000000000, 0.0000000000000000000 ) ) ;
#12 = DATE_TIME_ROLE ( 'classification_date' ) ;
#13 = CARTESIAN_POINT ( 'NONE',  ( 1.371604415045035500E-016, -0.1000000000000003000, 0.0000000000000000000 ) ) ;
#14 = EDGE_CURVE ( 'NONE', #64, #64, #31, .T. ) ;
#15 = EDGE_CURVE ( 'NONE', #287, #375, #245, .T. ) ;
#16 = PLANE ( 'NONE',  #237 ) ;
#17 = ORIENTED_EDGE ( 'NONE', *, *, #249, .T. ) ;
#18 = ORIENTED_EDGE ( 'NONE', *, *, #153, .F. ) ;
#19 = DIRECTION ( 'NONE',  ( 1.224646799147353000E-016, -1.000000000000000000, 0.0000000000000000000 ) ) ;
#20 = SECURITY_CLASSIFICATION ( '', '', #124 ) ;
#21 = SHAPE_DEFINITION_REPRESENTATION ( #66, #87 ) ;
#22 = DATE_AND_TIME ( #93, #328 ) ;
#23 = DIRECTION ( 'NONE',  ( 0.0000000000000000000, 0.0000000000000000000, -1.000000000000000000 ) ) ;
#24 = ORIENTED_EDGE ( 'NONE', *, *, #132, .F. ) ;
#25 = CALENDAR_DATE ( 2017, 16, 8 ) ;
#26 = VERTEX_POINT ( 'NONE', #271 ) ;
#27 = VECTOR ( 'NONE', #344, 39.37007874015748100 ) ;
#28 = CARTESIAN_POINT ( 'NONE',  ( 0.0000000000000000000, -0.1000000000000002100, 0.0000000000000000000 ) ) ;
#29 = DIRECTION ( 'NONE',  ( 0.0000000000000000000, 0.0000000000000000000, 1.000000000000000000 ) ) ;
#30 = CARTESIAN_POINT ( 'NONE',  ( 1.371604415045035500E-016, -0.1000000000000003000, 0.0000000000000000000 ) ) ;
#31 = CIRCLE ( 'NONE', #195, 0.8670000000000001000 ) ;
#32 = FACE_OUTER_BOUND ( 'NONE', #226, .T. ) ;
#33 =( NAMED_UNIT ( * ) SI_UNIT ( $, .STERADIAN. ) SOLID_ANGLE_UNIT ( ) );
#34 = CARTESIAN_POINT ( 'NONE',  ( 0.0000000000000000000, -0.01999999999999978500, 0.0000000000000000000 ) ) ;
#35 = PERSON_AND_ORGANIZATION ( #319, #286 ) ;
#36 = COORDINATED_UNIVERSAL_TIME_OFFSET ( 5, 0, .BEHIND. ) ;
#37 = PRODUCT_RELATED_PRODUCT_CATEGORY ( 'detail', '', ( #292 ) ) ;
#38 = CARTESIAN_POINT ( 'NONE',  ( 0.0000000000000000000, -0.2800000000000000300, 0.0000000000000000000 ) ) ;
#39 = DIRECTION ( 'NONE',  ( -1.000000000000000000, -1.149767674101121000E-016, 0.0000000000000000000 ) ) ;
#40 = ORIENTED_EDGE ( 'NONE', *, *, #154, .T. ) ;
#41 = CIRCLE ( 'NONE', #128, 1.500000000000000200 ) ;
#42 = CALENDAR_DATE ( 2017, 16, 8 ) ;
#43 = DIRECTION ( 'NONE',  ( -0.0000000000000000000, -1.000000000000000000, -0.0000000000000000000 ) ) ;
#44 = FACE_OUTER_BOUND ( 'NONE', #9, .T. ) ;
#45 = CARTESIAN_POINT ( 'NONE',  ( 1.371604415045035300E-016, -0.1000000000000002100, 0.0000000000000000000 ) ) ;
#46 = FACE_OUTER_BOUND ( 'NONE', #119, .T. ) ;
#47 = EDGE_CURVE ( 'NONE', #83, #177, #265, .T. ) ;
#48 = APPROVAL_DATE_TIME ( #8, #161 ) ;
#49 = EDGE_LOOP ( 'NONE', ( #233 ) ) ;
#50 = VERTEX_POINT ( 'NONE', #367 ) ;
#51 = CC_DESIGN_PERSON_AND_ORGANIZATION_ASSIGNMENT ( #145, #127, ( #167 ) ) ;
#52 = EDGE_CURVE ( 'NONE', #50, #50, #350, .T. ) ;
#53 = CC_DESIGN_SECURITY_CLASSIFICATION ( #20, ( #167 ) ) ;
#54 = ORIENTED_EDGE ( 'NONE', *, *, #118, .T. ) ;
#55 = EDGE_LOOP ( 'NONE', ( #121, #333, #306, #224 ) ) ;
#56 = AXIS2_PLACEMENT_3D ( 'NONE', #6, #259, #5 ) ;
#57 = DIRECTION ( 'NONE',  ( 0.0000000000000000000, 0.0000000000000000000, 1.000000000000000000 ) ) ;
#58 = AXIS2_PLACEMENT_3D ( 'NONE', #252, #62, #57 ) ;
#59 = EDGE_LOOP ( 'NONE', ( #88, #289, #297, #74 ) ) ;
#60 = ORIENTED_EDGE ( 'NONE', *, *, #15, .T. ) ;
#61 = FACE_OUTER_BOUND ( 'NONE', #160, .T. ) ;
#62 = DIRECTION ( 'NONE',  ( 0.0000000000000000000, 1.000000000000000000, 0.0000000000000000000 ) ) ;
#63 =( CONVERSION_BASED_UNIT ( 'INCH', #172 ) LENGTH_UNIT ( ) NAMED_UNIT ( #180 ) );
#64 = VERTEX_POINT ( 'NONE', #239 ) ;
#65 = LINE ( 'NONE', #301, #299 ) ;
#66 = PRODUCT_DEFINITION_SHAPE ( 'NONE', 'NONE',  #290 ) ;
#67 = CARTESIAN_POINT ( 'NONE',  ( 0.0000000000000000000, 1.020000000000000000, 1.370000000000000100 ) ) ;
#68 = AXIS2_PLACEMENT_3D ( 'NONE', #229, #136, #166 ) ;
#69 = ORIENTED_EDGE ( 'NONE', *, *, #14, .T. ) ;
#70 = DIRECTION ( 'NONE',  ( 1.000000000000000000, 0.0000000000000000000, 0.0000000000000000000 ) ) ;
#71 = CC_DESIGN_APPROVAL ( #213, ( #290 ) ) ;
#72 = ADVANCED_FACE ( 'NONE', ( #256 ), #267, .T. ) ;
#73 = EDGE_LOOP ( 'NONE', ( #269 ) ) ;
#74 = ORIENTED_EDGE ( 'NONE', *, *, #371, .T. ) ;
#75 = CARTESIAN_POINT ( 'NONE',  ( 0.0000000000000000000, 0.9399999999999999500, 0.0000000000000000000 ) ) ;
#76 = MANIFOLD_SOLID_BREP ( 'Cut-Revolve2', #230 ) ;
#77 = DIRECTION ( 'NONE',  ( 0.0000000000000000000, 0.0000000000000000000, -1.000000000000000000 ) ) ;
#78 = PLANE ( 'NONE',  #242 ) ;
#79 = CARTESIAN_POINT ( 'NONE',  ( 0.6108191221630179200, 0.9399999999999999500, 1.370000000000000100 ) ) ;
#80 = CC_DESIGN_PERSON_AND_ORGANIZATION_ASSIGNMENT ( #35, #270, ( #167 ) ) ;
#81 = EDGE_CURVE ( 'NONE', #287, #177, #335, .T. ) ;
#82 = PERSON_AND_ORGANIZATION ( #319, #286 ) ;
#83 = VERTEX_POINT ( 'NONE', #250 ) ;
#84 = ADVANCED_FACE ( 'NONE', ( #46 ), #251, .F. ) ;
#85 = CARTESIAN_POINT ( 'NONE',  ( 0.0000000000000000000, -1.669999999999999900, 0.0000000000000000000 ) ) ;
#86 = EDGE_CURVE ( 'NONE', #285, #375, #41, .T. ) ;
#87 = ADVANCED_BREP_SHAPE_REPRESENTATION ( '5529015', ( #76, #116 ), #277 ) ;
#88 = ORIENTED_EDGE ( 'NONE', *, *, #357, .F. ) ;
#89 = DIRECTION ( 'NONE',  ( 0.0000000000000000000, -1.000000000000000000, 0.0000000000000000000 ) ) ;
#90 = FACE_BOUND ( 'NONE', #369, .T. ) ;
#91 = DIRECTION ( 'NONE',  ( -1.000000000000000000, 0.0000000000000000000, 0.0000000000000000000 ) ) ;
#92 = DIRECTION ( 'NONE',  ( 0.0000000000000000000, -1.000000000000000000, 0.0000000000000000000 ) ) ;
#93 = CALENDAR_DATE ( 2017, 16, 8 ) ;
#94 = DIRECTION ( 'NONE',  ( 0.0000000000000000000, 0.0000000000000000000, -1.000000000000000000 ) ) ;
#95 = EDGE_LOOP ( 'NONE', ( #69 ) ) ;
#96 = DIRECTION ( 'NONE',  ( 0.0000000000000000000, 0.0000000000000000000, -1.000000000000000000 ) ) ;
#97 = DATE_AND_TIME ( #42, #298 ) ;
#98 = DIRECTION ( 'NONE',  ( -0.0000000000000000000, -1.000000000000000000, -0.0000000000000000000 ) ) ;
#99 = FACE_OUTER_BOUND ( 'NONE', #95, .T. ) ;
#100 = APPROVAL_STATUS ( 'not_yet_approved' ) ;
#101 = DIRECTION ( 'NONE',  ( 1.000000000000000000, 0.0000000000000000000, 0.0000000000000000000 ) ) ;
#102 = VECTOR ( 'NONE', #98, 39.37007874015748100 ) ;
#103 = CC_DESIGN_DATE_AND_TIME_ASSIGNMENT ( #97, #361, ( #290 ) ) ;
#104 = CARTESIAN_POINT ( 'NONE',  ( 0.6108191221630179200, 1.020000000000000000, -1.370000000000000100 ) ) ;
#105 = LOCAL_TIME ( 15, 3, 35.00000000000000000, #184 ) ;
#106 = CC_DESIGN_PERSON_AND_ORGANIZATION_ASSIGNMENT ( #82, #320, ( #292 ) ) ;
#107 = LINE ( 'NONE', #294, #280 ) ;
#108 = ADVANCED_FACE ( 'NONE', ( #356 ), #302, .F. ) ;
#109 = EDGE_CURVE ( 'NONE', #287, #138, #120, .T. ) ;
#110 = CARTESIAN_POINT ( 'NONE',  ( 0.0000000000000000000, 0.0000000000000000000, 0.0000000000000000000 ) ) ;
#111 = ORIENTED_EDGE ( 'NONE', *, *, #3, .F. ) ;
#112 = ORIENTED_EDGE ( 'NONE', *, *, #189, .T. ) ;
#113 = LINE ( 'NONE', #150, #373 ) ;
#114 = VERTEX_POINT ( 'NONE', #258 ) ;
#115 = DESIGN_CONTEXT ( 'detailed design', #326, 'design' ) ;
#116 = AXIS2_PLACEMENT_3D ( 'NONE', #110, #262, #1 ) ;
#117 = DATE_AND_TIME ( #25, #105 ) ;
#118 = EDGE_CURVE ( 'NONE', #83, #138, #113, .T. ) ;
#119 = EDGE_LOOP ( 'NONE', ( #324, #130, #228, #347 ) ) ;
#120 = CIRCLE ( 'NONE', #58, 1.500000000000000200 ) ;
#121 = ORIENTED_EDGE ( 'NONE', *, *, #81, .F. ) ;
#122 = CALENDAR_DATE ( 2017, 16, 8 ) ;
#123 = FACE_OUTER_BOUND ( 'NONE', #4, .T. ) ;
#124 = SECURITY_CLASSIFICATION_LEVEL ( 'unclassified' ) ;
#125 = FACE_OUTER_BOUND ( 'NONE', #216, .T. ) ;
#126 = ORIENTED_EDGE ( 'NONE', *, *, #86, .F. ) ;
#127 = PERSON_AND_ORGANIZATION_ROLE ( 'creator' ) ;
#128 = AXIS2_PLACEMENT_3D ( 'NONE', #325, #316, #96 ) ;
#129 = VERTEX_POINT ( 'NONE', #140 ) ;
#130 = ORIENTED_EDGE ( 'NONE', *, *, #164, .F. ) ;
#131 = CYLINDRICAL_SURFACE ( 'NONE', #264, 1.500000000000000200 ) ;
#132 = EDGE_CURVE ( 'NONE', #285, #208, #65, .T. ) ;
#133 = FACE_BOUND ( 'NONE', #190, .T. ) ;
#134 = VECTOR ( 'NONE', #70, 39.37007874015748100 ) ;
#135 = DIRECTION ( 'NONE',  ( -1.224646799147353000E-016, 1.000000000000000000, 0.0000000000000000000 ) ) ;
#136 = DIRECTION ( 'NONE',  ( -0.0000000000000000000, -1.000000000000000000, -0.0000000000000000000 ) ) ;
#137 = CALENDAR_DATE ( 2017, 16, 8 ) ;
#138 = VERTEX_POINT ( 'NONE', #104 ) ;
#139 = CC_DESIGN_APPROVAL ( #188, ( #167 ) ) ;
#140 = CARTESIAN_POINT ( 'NONE',  ( -0.6108191221630179200, -0.2799999999999998600, 1.370000000000000100 ) ) ;
#141 = ADVANCED_FACE ( 'NONE', ( #198, #378 ), #199, .T. ) ;
#142 = EDGE_CURVE ( 'NONE', #248, #248, #193, .T. ) ;
#143 = APPROVAL_ROLE ( '' ) ;
#144 = VERTEX_POINT ( 'NONE', #215 ) ;
#145 = PERSON_AND_ORGANIZATION ( #319, #286 ) ;
#146 = ADVANCED_FACE ( 'NONE', ( #218, #359 ), #78, .T. ) ;
#147 = DIRECTION ( 'NONE',  ( 1.000000000000000000, 0.0000000000000000000, -0.0000000000000000000 ) ) ;
#148 = CC_DESIGN_PERSON_AND_ORGANIZATION_ASSIGNMENT ( #234, #268, ( #290 ) ) ;
#149 = CC_DESIGN_APPROVAL ( #161, ( #20 ) ) ;
#150 = CARTESIAN_POINT ( 'NONE',  ( 0.0000000000000000000, 1.020000000000000000, -1.370000000000000100 ) ) ;
#151 = ORIENTED_EDGE ( 'NONE', *, *, #249, .F. ) ;
#152 = CIRCLE ( 'NONE', #295, 0.8910000000000000100 ) ;
#153 = EDGE_CURVE ( 'NONE', #129, #375, #261, .T. ) ;
#154 = EDGE_CURVE ( 'NONE', #310, #310, #314, .T. ) ;
#155 = EDGE_LOOP ( 'NONE', ( #151 ) ) ;
#156 = CARTESIAN_POINT ( 'NONE',  ( 0.0000000000000000000, 1.020000000000000000, 0.0000000000000000000 ) ) ;
#157 = CIRCLE ( 'NONE', #377, 0.8670000000000001000 ) ;
#158 = DIRECTION ( 'NONE',  ( 0.0000000000000000000, 1.000000000000000000, 0.0000000000000000000 ) ) ;
#159 = ORIENTED_EDGE ( 'NONE', *, *, #312, .F. ) ;
#160 = EDGE_LOOP ( 'NONE', ( #18, #366, #24, #192 ) ) ;
#161 = APPROVAL ( #307, 'UNSPECIFIED' ) ;
#162 = CARTESIAN_POINT ( 'NONE',  ( -0.6108191221630179200, 0.9399999999999999500, -1.370000000000000100 ) ) ;
#163 = CIRCLE ( 'NONE', #257, 1.500000000000000200 ) ;
#164 = EDGE_CURVE ( 'NONE', #129, #177, #107, .T. ) ;
#165 = DIRECTION ( 'NONE',  ( -1.000000000000000000, 0.0000000000000000000, 0.0000000000000000000 ) ) ;
#166 = DIRECTION ( 'NONE',  ( 0.0000000000000000000, 0.0000000000000000000, -1.000000000000000000 ) ) ;
#167 = PRODUCT_DEFINITION_FORMATION_WITH_SPECIFIED_SOURCE ( 'ANY', '', #292, .NOT_KNOWN. ) ;
#168 = APPROVAL_DATE_TIME ( #244, #213 ) ;
#169 = CIRCLE ( 'NONE', #288, 0.9849999999999999900 ) ;
#170 = CARTESIAN_POINT ( 'NONE',  ( 0.0000000000000000000, -0.2800000000000000300, 0.0000000000000000000 ) ) ;
#171 = COORDINATED_UNIVERSAL_TIME_OFFSET ( 5, 0, .BEHIND. ) ;
#172 = LENGTH_MEASURE_WITH_UNIT ( LENGTH_MEASURE( 0.02539999999999999900 ), #337 );
#173 = DIRECTION ( 'NONE',  ( -0.0000000000000000000, 1.000000000000000000, -0.0000000000000000000 ) ) ;
#174 = FACE_OUTER_BOUND ( 'NONE', #55, .T. ) ;
#175 = DIRECTION ( 'NONE',  ( 0.0000000000000000000, 0.0000000000000000000, 1.000000000000000000 ) ) ;
#176 = CARTESIAN_POINT ( 'NONE',  ( 0.0000000000000000000, -0.2800000000000000300, 0.0000000000000000000 ) ) ;
#177 = VERTEX_POINT ( 'NONE', #283 ) ;
#178 = LOCAL_TIME ( 15, 3, 35.00000000000000000, #255 ) ;
#179 = VECTOR ( 'NONE', #165, 39.37007874015748100 ) ;
#180 = DIMENSIONAL_EXPONENTS ( 1.000000000000000000, 0.0000000000000000000, 0.0000000000000000000, 0.0000000000000000000, 0.0000000000000000000, 0.0000000000000000000, 0.0000000000000000000 ) ;
#181 = UNCERTAINTY_MEASURE_WITH_UNIT (LENGTH_MEASURE( 1.000000000000000100E-005 ), #63, 'distance_accuracy_value', 'NONE');
#182 = CARTESIAN_POINT ( 'NONE',  ( 0.6108191221630179200, -0.2799999999999998600, -1.370000000000000100 ) ) ;
#183 = AXIS2_PLACEMENT_3D ( 'NONE', #45, #135, #293 ) ;
#184 = COORDINATED_UNIVERSAL_TIME_OFFSET ( 5, 0, .BEHIND. ) ;
#185 = ADVANCED_FACE ( 'NONE', ( #174, #90 ), #349, .T. ) ;
#186 = PERSON_AND_ORGANIZATION ( #319, #286 ) ;
#187 = CYLINDRICAL_SURFACE ( 'NONE', #56, 0.9849999999999999900 ) ;
#188 = APPROVAL ( #100, 'UNSPECIFIED' ) ;
#189 = EDGE_CURVE ( 'NONE', #285, #138, #196, .T. ) ;
#190 = EDGE_LOOP ( 'NONE', ( #159 ) ) ;
#191 = PERSON_AND_ORGANIZATION_ROLE ( 'classification_officer' ) ;
#192 = ORIENTED_EDGE ( 'NONE', *, *, #86, .T. ) ;
#193 = CIRCLE ( 'NONE', #362, 1.105000000000000000 ) ;
#194 = AXIS2_PLACEMENT_3D ( 'NONE', #201, #206, #23 ) ;
#195 = AXIS2_PLACEMENT_3D ( 'NONE', #85, #92, #94 ) ;
#196 = LINE ( 'NONE', #360, #27 ) ;
#197 = ORIENTED_EDGE ( 'NONE', *, *, #132, .T. ) ;
#198 = FACE_OUTER_BOUND ( 'NONE', #279, .T. ) ;
#199 = PLANE ( 'NONE',  #183 ) ;
#200 = CARTESIAN_POINT ( 'NONE',  ( 0.6108191221630179200, -0.2800000000000000300, 1.370000000000000100 ) ) ;
#201 = CARTESIAN_POINT ( 'NONE',  ( 0.0000000000000000000, -0.4000000000000000800, 0.0000000000000000000 ) ) ;
#202 = EDGE_LOOP ( 'NONE', ( #304 ) ) ;
#203 = CC_DESIGN_PERSON_AND_ORGANIZATION_ASSIGNMENT ( #339, #191, ( #20 ) ) ;
#204 = ORIENTED_EDGE ( 'NONE', *, *, #312, .T. ) ;
#205 = CARTESIAN_POINT ( 'NONE',  ( 0.0000000000000000000, -1.669999999999999900, 0.0000000000000000000 ) ) ;
#206 = DIRECTION ( 'NONE',  ( 0.0000000000000000000, -1.000000000000000000, 0.0000000000000000000 ) ) ;
#207 = VECTOR ( 'NONE', #43, 39.37007874015748100 ) ;
#208 = VERTEX_POINT ( 'NONE', #329 ) ;
#209 = AXIS2_PLACEMENT_3D ( 'NONE', #253, #276, #274 ) ;
#210 = APPLICATION_PROTOCOL_DEFINITION ( 'international standard', 'config_control_design', 1994, #10 ) ;
#211 = CONICAL_SURFACE ( 'NONE', #227, 0.8910000000000000100, 0.05235987755982282600 ) ;
#212 = ORIENTED_EDGE ( 'NONE', *, *, #52, .F. ) ;
#213 = APPROVAL ( #281, 'UNSPECIFIED' ) ;
#214 = DIRECTION ( 'NONE',  ( 0.0000000000000000000, 0.0000000000000000000, -1.000000000000000000 ) ) ;
#215 = CARTESIAN_POINT ( 'NONE',  ( 0.0000000000000000000, -1.669999999999999900, -0.9849999999999999900 ) ) ;
#216 = EDGE_LOOP ( 'NONE', ( #40 ) ) ;
#217 = DIRECTION ( 'NONE',  ( 0.0000000000000000000, 0.0000000000000000000, -1.000000000000000000 ) ) ;
#218 = FACE_BOUND ( 'NONE', #7, .T. ) ;
#219 = DIRECTION ( 'NONE',  ( 0.0000000000000000000, 0.0000000000000000000, -1.000000000000000000 ) ) ;
#220 = CARTESIAN_POINT ( 'NONE',  ( 0.0000000000000000000, -1.669999999999999900, 0.0000000000000000000 ) ) ;
#221 = AXIS2_PLACEMENT_3D ( 'NONE', #34, #327, #2 ) ;
#222 = CARTESIAN_POINT ( 'NONE',  ( -0.9496967127969983000, 1.019999999999999800, 0.0000000000000000000 ) ) ;
#223 = DIRECTION ( 'NONE',  ( 0.0000000000000000000, -1.000000000000000000, 0.0000000000000000000 ) ) ;
#224 = ORIENTED_EDGE ( 'NONE', *, *, #47, .T. ) ;
#225 = AXIS2_PLACEMENT_3D ( 'NONE', #291, #315, #336 ) ;
#226 = EDGE_LOOP ( 'NONE', ( #111 ) ) ;
#227 = AXIS2_PLACEMENT_3D ( 'NONE', #30, #374, #39 ) ;
#228 = ORIENTED_EDGE ( 'NONE', *, *, #153, .T. ) ;
#229 = CARTESIAN_POINT ( 'NONE',  ( 0.0000000000000000000, 0.9399999999999999500, 0.0000000000000000000 ) ) ;
#230 = CLOSED_SHELL ( 'NONE', ( #185, #353, #284, #296, #72, #317, #146, #343, #108, #84, #141, #363 ) ) ;
#231 = DIRECTION ( 'NONE',  ( 0.0000000000000000000, -1.000000000000000000, 0.0000000000000000000 ) ) ;
#232 = DIRECTION ( 'NONE',  ( 0.0000000000000000000, -0.0000000000000000000, -1.000000000000000000 ) ) ;
#233 = ORIENTED_EDGE ( 'NONE', *, *, #142, .T. ) ;
#234 = PERSON_AND_ORGANIZATION ( #319, #286 ) ;
#235 = EDGE_LOOP ( 'NONE', ( #54, #309, #197, #275 ) ) ;
#236 = CARTESIAN_POINT ( 'NONE',  ( 0.0000000000000000000, -0.4000000000000000800, 0.0000000000000000000 ) ) ;
#237 = AXIS2_PLACEMENT_3D ( 'NONE', #38, #11, #303 ) ;
#238 = DIRECTION ( 'NONE',  ( -1.224646799147353000E-016, 1.000000000000000000, -0.0000000000000000000 ) ) ;
#239 = CARTESIAN_POINT ( 'NONE',  ( 0.0000000000000000000, -1.669999999999999900, -0.8670000000000001000 ) ) ;
#240 = FACE_BOUND ( 'NONE', #49, .T. ) ;
#241 = AXIS2_PLACEMENT_3D ( 'NONE', #345, #29, #147 ) ;
#242 = AXIS2_PLACEMENT_3D ( 'NONE', #205, #223, #232 ) ;
#243 = DIRECTION ( 'NONE',  ( 0.0000000000000000000, -1.000000000000000000, 0.0000000000000000000 ) ) ;
#244 = DATE_AND_TIME ( #122, #247 ) ;
#245 = LINE ( 'NONE', #79, #102 ) ;
#246 = APPROVAL_DATE_TIME ( #117, #188 ) ;
#247 = LOCAL_TIME ( 15, 3, 35.00000000000000000, #36 ) ;
#248 = VERTEX_POINT ( 'NONE', #300 ) ;
#249 = EDGE_CURVE ( 'NONE', #26, #26, #157, .T. ) ;
#250 = CARTESIAN_POINT ( 'NONE',  ( -0.6108191221630179200, 1.020000000000000000, -1.370000000000000100 ) ) ;
#251 = PLANE ( 'NONE',  #209 ) ;
#252 = CARTESIAN_POINT ( 'NONE',  ( 0.0000000000000000000, 1.020000000000000000, 0.0000000000000000000 ) ) ;
#253 = CARTESIAN_POINT ( 'NONE',  ( 1.042042849553496400, -1.669999999999999900, 1.370000000000000100 ) ) ;
#254 = EDGE_LOOP ( 'NONE', ( #355 ) ) ;
#255 = COORDINATED_UNIVERSAL_TIME_OFFSET ( 5, 0, .BEHIND. ) ;
#256 = FACE_OUTER_BOUND ( 'NONE', #59, .T. ) ;
#257 = AXIS2_PLACEMENT_3D ( 'NONE', #176, #231, #217 ) ;
#258 = CARTESIAN_POINT ( 'NONE',  ( -0.8909999999999999000, -0.1000000000000004100, 0.0000000000000000000 ) ) ;
#259 = DIRECTION ( 'NONE',  ( -0.0000000000000000000, 1.000000000000000000, -0.0000000000000000000 ) ) ;
#260 = APPROVAL_PERSON_ORGANIZATION ( #351, #188, #358 ) ;
#261 = LINE ( 'NONE', #305, #134 ) ;
#262 = DIRECTION ( 'NONE',  ( 0.0000000000000000000, 0.0000000000000000000, 1.000000000000000000 ) ) ;
#263 = DIRECTION ( 'NONE',  ( -1.000000000000000000, -1.181595152968971900E-016, 0.0000000000000000000 ) ) ;
#264 = AXIS2_PLACEMENT_3D ( 'NONE', #75, #365, #322 ) ;
#265 = CIRCLE ( 'NONE', #266, 1.500000000000000200 ) ;
#266 = AXIS2_PLACEMENT_3D ( 'NONE', #156, #158, #175 ) ;
#267 = CYLINDRICAL_SURFACE ( 'NONE', #68, 1.500000000000000200 ) ;
#268 = PERSON_AND_ORGANIZATION_ROLE ( 'creator' ) ;
#269 = ORIENTED_EDGE ( 'NONE', *, *, #3, .T. ) ;
#270 = PERSON_AND_ORGANIZATION_ROLE ( 'design_supplier' ) ;
#271 = CARTESIAN_POINT ( 'NONE',  ( -0.8670000000000001000, -0.1000000000000003100, 0.0000000000000000000 ) ) ;
#272 = DIRECTION ( 'NONE',  ( -1.000000000000000000, -1.149767674101121000E-016, 0.0000000000000000000 ) ) ;
#273 = ORIENTED_EDGE ( 'NONE', *, *, #109, .F. ) ;
#274 = DIRECTION ( 'NONE',  ( -1.000000000000000000, 0.0000000000000000000, 0.0000000000000000000 ) ) ;
#275 = ORIENTED_EDGE ( 'NONE', *, *, #371, .F. ) ;
#276 = DIRECTION ( 'NONE',  ( -0.0000000000000000000, 0.0000000000000000000, -1.000000000000000000 ) ) ;
#277 =( GEOMETRIC_REPRESENTATION_CONTEXT ( 3 ) GLOBAL_UNCERTAINTY_ASSIGNED_CONTEXT ( ( #181 ) ) GLOBAL_UNIT_ASSIGNED_CONTEXT ( ( #63, #376, #33 ) ) REPRESENTATION_CONTEXT ( 'NONE', 'WORKASPACE' ) );
#278 = ORIENTED_EDGE ( 'NONE', *, *, #154, .F. ) ;
#279 = EDGE_LOOP ( 'NONE', ( #204 ) ) ;
#280 = VECTOR ( 'NONE', #338, 39.37007874015748100 ) ;
#281 = APPROVAL_STATUS ( 'not_yet_approved' ) ;
#282 = CC_DESIGN_DATE_AND_TIME_ASSIGNMENT ( #22, #12, ( #20 ) ) ;
#283 = CARTESIAN_POINT ( 'NONE',  ( -0.6108191221630180400, 1.020000000000000000, 1.370000000000000100 ) ) ;
#284 = ADVANCED_FACE ( 'NONE', ( #44 ), #131, .T. ) ;
#285 = VERTEX_POINT ( 'NONE', #182 ) ;
#286 = ORGANIZATION ( 'UNSPECIFIED', 'UNSPECIFIED', '' ) ;
#287 = VERTEX_POINT ( 'NONE', #368 ) ;
#288 = AXIS2_PLACEMENT_3D ( 'NONE', #220, #89, #77 ) ;
#289 = ORIENTED_EDGE ( 'NONE', *, *, #164, .T. ) ;
#290 = PRODUCT_DEFINITION ( 'UNKNOWN', '', #167, #115 ) ;
#291 = CARTESIAN_POINT ( 'NONE',  ( -2.484575150199228800E-033, 1.020000000000000000, 0.0000000000000000000 ) ) ;
#292 = PRODUCT ( '5529015', '5529015', '', ( #311 ) ) ;
#293 = DIRECTION ( 'NONE',  ( -1.000000000000000000, -1.224646799147353000E-016, 0.0000000000000000000 ) ) ;
#294 = CARTESIAN_POINT ( 'NONE',  ( -0.6108191221630179200, 0.9399999999999999500, 1.370000000000000100 ) ) ;
#295 = AXIS2_PLACEMENT_3D ( 'NONE', #13, #238, #272 ) ;
#296 = ADVANCED_FACE ( 'NONE', ( #61, #240 ), #16, .T. ) ;
#297 = ORIENTED_EDGE ( 'NONE', *, *, #47, .F. ) ;
#298 = LOCAL_TIME ( 15, 3, 35.00000000000000000, #334 ) ;
#299 = VECTOR ( 'NONE', #91, 39.37007874015748100 ) ;
#300 = CARTESIAN_POINT ( 'NONE',  ( 0.0000000000000000000, -0.2800000000000000300, -1.105000000000000000 ) ) ;
#301 = CARTESIAN_POINT ( 'NONE',  ( 0.0000000000000000000, -0.2800000000000000300, -1.370000000000000100 ) ) ;
#302 = PLANE ( 'NONE',  #241 ) ;
#303 = DIRECTION ( 'NONE',  ( 0.0000000000000000000, -0.0000000000000000000, -1.000000000000000000 ) ) ;
#304 = ORIENTED_EDGE ( 'NONE', *, *, #52, .T. ) ;
#305 = CARTESIAN_POINT ( 'NONE',  ( 0.0000000000000000000, -0.2800000000000000300, 1.370000000000000100 ) ) ;
#306 = ORIENTED_EDGE ( 'NONE', *, *, #118, .F. ) ;
#307 = APPROVAL_STATUS ( 'not_yet_approved' ) ;
#308 = CARTESIAN_POINT ( 'NONE',  ( 0.0000000000000000000, 1.020000000000000000, 0.0000000000000000000 ) ) ;
#309 = ORIENTED_EDGE ( 'NONE', *, *, #189, .F. ) ;
#310 = VERTEX_POINT ( 'NONE', #222 ) ;
#311 = MECHANICAL_CONTEXT ( 'NONE', #10, 'mechanical' ) ;
#312 = EDGE_CURVE ( 'NONE', #114, #114, #152, .T. ) ;
#313 = FACE_OUTER_BOUND ( 'NONE', #155, .T. ) ;
#314 = CIRCLE ( 'NONE', #225, 0.9496967127969983000 ) ;
#315 = DIRECTION ( 'NONE',  ( -1.224646799147353000E-016, 1.000000000000000000, -0.0000000000000000000 ) ) ;
#316 = DIRECTION ( 'NONE',  ( 0.0000000000000000000, -1.000000000000000000, 0.0000000000000000000 ) ) ;
#317 = ADVANCED_FACE ( 'NONE', ( #352, #32 ), #187, .T. ) ;
#318 = AXIS2_PLACEMENT_3D ( 'NONE', #308, #340, #330 ) ;
#319 = PERSON ( 'UNSPECIFIED', 'UNSPECIFIED', 'UNSPECIFIED', ('UNSPECIFIED'), ('UNSPECIFIED'), ('UNSPECIFIED') ) ;
#320 = PERSON_AND_ORGANIZATION_ROLE ( 'design_owner' ) ;
#321 = EDGE_LOOP ( 'NONE', ( #17 ) ) ;
#322 = DIRECTION ( 'NONE',  ( 0.0000000000000000000, 0.0000000000000000000, -1.000000000000000000 ) ) ;
#323 = PERSON_AND_ORGANIZATION ( #319, #286 ) ;
#324 = ORIENTED_EDGE ( 'NONE', *, *, #81, .T. ) ;
#325 = CARTESIAN_POINT ( 'NONE',  ( 0.0000000000000000000, -0.2800000000000000300, 0.0000000000000000000 ) ) ;
#326 = APPLICATION_CONTEXT ( 'configuration controlled 3d designs of mechanical parts and assemblies' ) ;
#327 = DIRECTION ( 'NONE',  ( -0.0000000000000000000, -1.000000000000000000, -0.0000000000000000000 ) ) ;
#328 = LOCAL_TIME ( 15, 3, 35.00000000000000000, #171 ) ;
#329 = CARTESIAN_POINT ( 'NONE',  ( -0.6108191221630179200, -0.2800000000000000300, -1.370000000000000100 ) ) ;
#330 = DIRECTION ( 'NONE',  ( 0.0000000000000000000, -0.0000000000000000000, 1.000000000000000000 ) ) ;
#331 = APPLICATION_PROTOCOL_DEFINITION ( 'international standard', 'config_control_design', 1994, #326 ) ;
#332 = AXIS2_PLACEMENT_3D ( 'NONE', #236, #243, #214 ) ;
#333 = ORIENTED_EDGE ( 'NONE', *, *, #109, .T. ) ;
#334 = COORDINATED_UNIVERSAL_TIME_OFFSET ( 5, 0, .BEHIND. ) ;
#335 = LINE ( 'NONE', #67, #179 ) ;
#336 = DIRECTION ( 'NONE',  ( -1.000000000000000000, -1.438273902001073500E-016, 0.0000000000000000000 ) ) ;
#337 =( LENGTH_UNIT ( ) NAMED_UNIT ( * ) SI_UNIT ( $, .METRE. ) );
#338 = DIRECTION ( 'NONE',  ( 0.0000000000000000000, 1.000000000000000000, 0.0000000000000000000 ) ) ;
#339 = PERSON_AND_ORGANIZATION ( #319, #286 ) ;
#340 = DIRECTION ( 'NONE',  ( 0.0000000000000000000, 1.000000000000000000, 0.0000000000000000000 ) ) ;
#341 = APPROVAL_PERSON_ORGANIZATION ( #186, #213, #143 ) ;
#342 = FACE_OUTER_BOUND ( 'NONE', #254, .T. ) ;
#343 = ADVANCED_FACE ( 'NONE', ( #342, #123 ), #370, .F. ) ;
#344 = DIRECTION ( 'NONE',  ( 0.0000000000000000000, 1.000000000000000000, 0.0000000000000000000 ) ) ;
#345 = CARTESIAN_POINT ( 'NONE',  ( 1.042042849553496400, -1.669999999999999900, -1.370000000000000100 ) ) ;
#346 = APPROVAL_ROLE ( '' ) ;
#347 = ORIENTED_EDGE ( 'NONE', *, *, #15, .F. ) ;
#348 = APPROVAL_PERSON_ORGANIZATION ( #323, #161, #346 ) ;
#349 = PLANE ( 'NONE',  #318 ) ;
#350 = CIRCLE ( 'NONE', #332, 0.9849999999999999900 ) ;
#351 = PERSON_AND_ORGANIZATION ( #319, #286 ) ;
#352 = FACE_OUTER_BOUND ( 'NONE', #202, .T. ) ;
#353 = ADVANCED_FACE ( 'NONE', ( #99, #313 ), #372, .F. ) ;
#354 = ORIENTED_EDGE ( 'NONE', *, *, #14, .F. ) ;
#355 = ORIENTED_EDGE ( 'NONE', *, *, #142, .F. ) ;
#356 = FACE_OUTER_BOUND ( 'NONE', #235, .T. ) ;
#357 = EDGE_CURVE ( 'NONE', #129, #208, #163, .T. ) ;
#358 = APPROVAL_ROLE ( '' ) ;
#359 = FACE_OUTER_BOUND ( 'NONE', #73, .T. ) ;
#360 = CARTESIAN_POINT ( 'NONE',  ( 0.6108191221630179200, 0.9399999999999999500, -1.370000000000000100 ) ) ;
#361 = DATE_TIME_ROLE ( 'creation_date' ) ;
#362 = AXIS2_PLACEMENT_3D ( 'NONE', #170, #173, #219 ) ;
#363 = ADVANCED_FACE ( 'NONE', ( #125, #133 ), #211, .F. ) ;
#364 = LINE ( 'NONE', #162, #207 ) ;
#365 = DIRECTION ( 'NONE',  ( -0.0000000000000000000, -1.000000000000000000, -0.0000000000000000000 ) ) ;
#366 = ORIENTED_EDGE ( 'NONE', *, *, #357, .T. ) ;
#367 = CARTESIAN_POINT ( 'NONE',  ( 0.0000000000000000000, -0.4000000000000000800, -0.9849999999999999900 ) ) ;
#368 = CARTESIAN_POINT ( 'NONE',  ( 0.6108191221630179200, 1.020000000000000000, 1.370000000000000100 ) ) ;
#369 = EDGE_LOOP ( 'NONE', ( #278 ) ) ;
#370 = TOROIDAL_SURFACE ( 'NONE', #194, 1.105000000000000000, 0.1200000000000000000 ) ;
#371 = EDGE_CURVE ( 'NONE', #83, #208, #364, .T. ) ;
#372 = CYLINDRICAL_SURFACE ( 'NONE', #221, 0.8670000000000001000 ) ;
#373 = VECTOR ( 'NONE', #101, 39.37007874015748100 ) ;
#374 = DIRECTION ( 'NONE',  ( -1.224646799147353000E-016, 1.000000000000000000, -0.0000000000000000000 ) ) ;
#375 = VERTEX_POINT ( 'NONE', #200 ) ;
#376 =( NAMED_UNIT ( * ) PLANE_ANGLE_UNIT ( ) SI_UNIT ( $, .RADIAN. ) );
#377 = AXIS2_PLACEMENT_3D ( 'NONE', #28, #19, #263 ) ;
#378 = FACE_BOUND ( 'NONE', #321, .T. ) ;
ENDSEC;
END-ISO-10303-21;
