ISO-10303-21;
HEADER;
FILE_DESCRIPTION (( 'STEP AP203' ),
    '1' );
FILE_NAME ('5529010.STEP',
    '2017-08-16T18:58:30',
    ( '' ),
    ( '' ),
    'SwSTEP 2.0',
    'SolidWorks 2017',
    '' );
FILE_SCHEMA (( 'CONFIG_CONTROL_DESIGN' ));
ENDSEC;

DATA;
#1 = LINE ( 'NONE', #144, #314 ) ;
#2 = FACE_OUTER_BOUND ( 'NONE', #149, .T. ) ;
#3 = ORIENTED_EDGE ( 'NONE', *, *, #6, .F. ) ;
#4 = DIRECTION ( 'NONE',  ( -3.851859888774472600E-034, -1.000000000000000000, 1.940976272077761600E-034 ) ) ;
#5 = COORDINATED_UNIVERSAL_TIME_OFFSET ( 5, 0, .BEHIND. ) ;
#6 = EDGE_CURVE ( 'NONE', #232, #190, #93, .T. ) ;
#7 = DIRECTION ( 'NONE',  ( 3.611118645726067200E-034, 1.000000000000000000, -2.241902825888266700E-034 ) ) ;
#8 = CARTESIAN_POINT ( 'NONE',  ( 0.4358898943540688900, 0.7799999999999977000, 0.9000000000000010200 ) ) ;
#9 = LINE ( 'NONE', #148, #369 ) ;
#10 = DIRECTION ( 'NONE',  ( -3.611118645726067200E-034, -1.000000000000000000, 2.241902825888266700E-034 ) ) ;
#11 = DIRECTION ( 'NONE',  ( -3.611118645726066800E-034, -1.000000000000000000, -2.377319775102990400E-034 ) ) ;
#12 = CARTESIAN_POINT ( 'NONE',  ( -2.369500423704768600E-034, -1.840000000000000100, 5.923751059261921500E-035 ) ) ;
#13 = VERTEX_POINT ( 'NONE', #47 ) ;
#14 = ORIENTED_EDGE ( 'NONE', *, *, #168, .F. ) ;
#15 = EDGE_CURVE ( 'NONE', #109, #254, #37, .T. ) ;
#16 = ORIENTED_EDGE ( 'NONE', *, *, #206, .T. ) ;
#17 = PLANE ( 'NONE',  #341 ) ;
#18 = DIRECTION ( 'NONE',  ( -3.611118645726067200E-034, -1.000000000000000000, 2.241902825888266700E-034 ) ) ;
#19 = VECTOR ( 'NONE', #339, 39.37007874015748100 ) ;
#20 = APPROVAL_ROLE ( '' ) ;
#21 = CALENDAR_DATE ( 2017, 16, 8 ) ;
#22 = ADVANCED_FACE ( 'NONE', ( #330 ), #274, .T. ) ;
#23 = DIRECTION ( 'NONE',  ( -1.224646799147354400E-016, 1.000000000000000000, 3.081487911019577400E-033 ) ) ;
#24 = LINE ( 'NONE', #40, #19 ) ;
#25 = VECTOR ( 'NONE', #45, 39.37007874015748100 ) ;
#26 = EDGE_LOOP ( 'NONE', ( #32 ) ) ;
#27 = CARTESIAN_POINT ( 'NONE',  ( -1.184750211852384300E-034, -0.3999999999999979100, 2.961875529630960700E-035 ) ) ;
#28 = VECTOR ( 'NONE', #136, 39.37007874015748100 ) ;
#29 = EDGE_LOOP ( 'NONE', ( #83 ) ) ;
#30 = ORIENTED_EDGE ( 'NONE', *, *, #239, .F. ) ;
#31 = CARTESIAN_POINT ( 'NONE',  ( -1.184750211852384300E-034, -0.3999999999999979100, 2.961875529630960700E-035 ) ) ;
#32 = ORIENTED_EDGE ( 'NONE', *, *, #348, .F. ) ;
#33 = ADVANCED_FACE ( 'NONE', ( #298, #293 ), #287, .F. ) ;
#34 = CALENDAR_DATE ( 2017, 16, 8 ) ;
#35 = DIRECTION ( 'NONE',  ( -1.387778780781443500E-017, 0.0000000000000000000, -1.000000000000000000 ) ) ;
#36 = APPROVAL_ROLE ( '' ) ;
#37 = CIRCLE ( 'NONE', #48, 1.000000000000001600 ) ;
#38 = APPLICATION_CONTEXT ( 'configuration controlled 3d designs of mechanical parts and assemblies' ) ;
#39 = EDGE_LOOP ( 'NONE', ( #222 ) ) ;
#40 = CARTESIAN_POINT ( 'NONE',  ( 0.4358898943540683300, 0.7000000000000007300, 0.9000000000000012400 ) ) ;
#41 = DIRECTION ( 'NONE',  ( 1.000000000000000000, 3.370377402677659700E-034, 9.714451465470111100E-017 ) ) ;
#42 = ORIENTED_EDGE ( 'NONE', *, *, #301, .T. ) ;
#43 = AXIS2_PLACEMENT_3D ( 'NONE', #250, #164, #361 ) ;
#44 = ORIENTED_EDGE ( 'NONE', *, *, #348, .T. ) ;
#45 = DIRECTION ( 'NONE',  ( 3.611118645726067200E-034, 1.000000000000000000, -2.241902825888266700E-034 ) ) ;
#46 = DATE_AND_TIME ( #21, #211 ) ;
#47 = CARTESIAN_POINT ( 'NONE',  ( -0.6576485572113387500, 0.7799999999999975800, 9.126707129094271200E-018 ) ) ;
#48 = AXIS2_PLACEMENT_3D ( 'NONE', #31, #96, #294 ) ;
#49 = AXIS2_PLACEMENT_3D ( 'NONE', #153, #23, #296 ) ;
#50 =( NAMED_UNIT ( * ) SI_UNIT ( $, .STERADIAN. ) SOLID_ANGLE_UNIT ( ) );
#51 = DIRECTION ( 'NONE',  ( 0.0000000000000000000, 0.0000000000000000000, 1.000000000000000000 ) ) ;
#52 = SECURITY_CLASSIFICATION ( '', '', #368 ) ;
#53 = LINE ( 'NONE', #170, #182 ) ;
#54 = ORIENTED_EDGE ( 'NONE', *, *, #289, .T. ) ;
#55 = MECHANICAL_CONTEXT ( 'NONE', #38, 'mechanical' ) ;
#56 = PRODUCT_DEFINITION_SHAPE ( 'NONE', 'NONE',  #126 ) ;
#57 = DIRECTION ( 'NONE',  ( -1.387778780781443700E-017, 0.0000000000000000000, -1.000000000000000000 ) ) ;
#58 = PERSON_AND_ORGANIZATION ( #161, #247 ) ;
#59 = EDGE_LOOP ( 'NONE', ( #42 ) ) ;
#60 = DATE_AND_TIME ( #34, #338 ) ;
#61 = FACE_OUTER_BOUND ( 'NONE', #265, .T. ) ;
#62 = AXIS2_PLACEMENT_3D ( 'NONE', #85, #133, #106 ) ;
#63 = CIRCLE ( 'NONE', #91, 0.6300000000000008900 ) ;
#64 = CARTESIAN_POINT ( 'NONE',  ( 5.775772661326065300E-019, -0.3999999999999979100, -0.9000000000000012400 ) ) ;
#65 = ORIENTED_EDGE ( 'NONE', *, *, #360, .T. ) ;
#66 = DIRECTION ( 'NONE',  ( -1.387778780781443700E-017, 0.0000000000000000000, -1.000000000000000000 ) ) ;
#67 = AXIS2_PLACEMENT_3D ( 'NONE', #326, #4, #234 ) ;
#68 = CARTESIAN_POINT ( 'NONE',  ( 1.184750211852384300E-034, 0.7799999999999977000, -8.885626588892882200E-035 ) ) ;
#69 = ORIENTED_EDGE ( 'NONE', *, *, #239, .T. ) ;
#70 = CARTESIAN_POINT ( 'NONE',  ( -8.743006318923107800E-018, -1.840000000000000100, -0.6300000000000008900 ) ) ;
#71 = ADVANCED_FACE ( 'NONE', ( #279, #216 ), #324, .T. ) ;
#72 = CARTESIAN_POINT ( 'NONE',  ( -0.6000000000000007500, -0.3200000000000010100, 8.326672684688676800E-018 ) ) ;
#73 = DIRECTION ( 'NONE',  ( -1.387778780781443400E-017, -2.241902825888266700E-034, -1.000000000000000000 ) ) ;
#74 = CALENDAR_DATE ( 2017, 16, 8 ) ;
#75 = LOCAL_TIME ( 14, 58, 30.00000000000000000, #84 ) ;
#76 = APPLICATION_PROTOCOL_DEFINITION ( 'international standard', 'config_control_design', 1994, #38 ) ;
#77 = ADVANCED_FACE ( 'NONE', ( #355, #2 ), #221, .F. ) ;
#78 = DIRECTION ( 'NONE',  ( -1.387778780781443500E-017, 0.0000000000000000000, -1.000000000000000000 ) ) ;
#79 = CC_DESIGN_PERSON_AND_ORGANIZATION_ASSIGNMENT ( #271, #132, ( #120 ) ) ;
#80 = EDGE_LOOP ( 'NONE', ( #30 ) ) ;
#81 = AXIS2_PLACEMENT_3D ( 'NONE', #335, #51, #300 ) ;
#82 = CARTESIAN_POINT ( 'NONE',  ( 0.0000000000000000000, -0.3200000000000009500, 2.961875529630960700E-035 ) ) ;
#83 = ORIENTED_EDGE ( 'NONE', *, *, #301, .F. ) ;
#84 = COORDINATED_UNIVERSAL_TIME_OFFSET ( 5, 0, .BEHIND. ) ;
#85 = CARTESIAN_POINT ( 'NONE',  ( 1.365923996832132100E-016, -0.3200000000000009500, 2.813781753149412600E-033 ) ) ;
#86 = DESIGN_CONTEXT ( 'detailed design', #362, 'design' ) ;
#87 = AXIS2_PLACEMENT_3D ( 'NONE', #68, #227, #343 ) ;
#88 = ORIENTED_EDGE ( 'NONE', *, *, #331, .T. ) ;
#89 =( CONVERSION_BASED_UNIT ( 'INCH', #244 ) LENGTH_UNIT ( ) NAMED_UNIT ( #150 ) );
#90 = PERSON_AND_ORGANIZATION_ROLE ( 'classification_officer' ) ;
#91 = AXIS2_PLACEMENT_3D ( 'NONE', #128, #262, #57 ) ;
#92 = ORIENTED_EDGE ( 'NONE', *, *, #291, .T. ) ;
#93 = LINE ( 'NONE', #137, #336 ) ;
#94 = EDGE_LOOP ( 'NONE', ( #44 ) ) ;
#95 = CARTESIAN_POINT ( 'NONE',  ( 1.184750211852384300E-034, 0.7799999999999977000, -8.885626588892882200E-035 ) ) ;
#96 = DIRECTION ( 'NONE',  ( -3.611118645726067200E-034, -1.000000000000000000, 2.241902825888266700E-034 ) ) ;
#97 = DATE_TIME_ROLE ( 'classification_date' ) ;
#98 = DIRECTION ( 'NONE',  ( -1.224646799147354400E-016, 1.000000000000000000, 3.081487911019577400E-033 ) ) ;
#99 = ORIENTED_EDGE ( 'NONE', *, *, #215, .F. ) ;
#100 = CARTESIAN_POINT ( 'NONE',  ( -0.4358898943540684400, -0.3999999999999979100, 0.9000000000000012400 ) ) ;
#101 = APPLICATION_PROTOCOL_DEFINITION ( 'international standard', 'config_control_design', 1994, #362 ) ;
#102 = DIRECTION ( 'NONE',  ( 1.387778780781443500E-017, 0.0000000000000000000, 1.000000000000000000 ) ) ;
#103 = VERTEX_POINT ( 'NONE', #270 ) ;
#104 = AXIS2_PLACEMENT_3D ( 'NONE', #195, #131, #78 ) ;
#105 = AXIS2_PLACEMENT_3D ( 'NONE', #95, #268, #154 ) ;
#106 = DIRECTION ( 'NONE',  ( -1.000000000000000000, -1.224646799147351200E-016, 1.387778780781443400E-017 ) ) ;
#107 = PLANE ( 'NONE',  #313 ) ;
#108 = CIRCLE ( 'NONE', #329, 1.000000000000001600 ) ;
#109 = VERTEX_POINT ( 'NONE', #100 ) ;
#110 = EDGE_LOOP ( 'NONE', ( #54, #235, #65, #210 ) ) ;
#111 = ORIENTED_EDGE ( 'NONE', *, *, #176, .T. ) ;
#112 = PERSON_AND_ORGANIZATION ( #161, #247 ) ;
#113 = DATE_AND_TIME ( #74, #257 ) ;
#114 = CARTESIAN_POINT ( 'NONE',  ( -9.575673587391976000E-018, -0.3999999999999979100, -0.6900000000000010600 ) ) ;
#115 = VERTEX_POINT ( 'NONE', #204 ) ;
#116 = EDGE_CURVE ( 'NONE', #220, #220, #290, .T. ) ;
#117 = ADVANCED_FACE ( 'NONE', ( #147, #297 ), #124, .F. ) ;
#118 = CARTESIAN_POINT ( 'NONE',  ( 0.4358898943540682700, -0.3999999999999979100, -0.9000000000000012400 ) ) ;
#119 = PRODUCT_DEFINITION_FORMATION_WITH_SPECIFIED_SOURCE ( 'ANY', '', #120, .NOT_KNOWN. ) ;
#120 = PRODUCT ( '5529010', '5529010', '', ( #55 ) ) ;
#121 = ORIENTED_EDGE ( 'NONE', *, *, #155, .T. ) ;
#122 = ORIENTED_EDGE ( 'NONE', *, *, #360, .F. ) ;
#123 = FACE_OUTER_BOUND ( 'NONE', #59, .T. ) ;
#124 = CONICAL_SURFACE ( 'NONE', #49, 0.6000000000000008700, 0.05235987755982309700 ) ;
#125 = CARTESIAN_POINT ( 'NONE',  ( -0.7198042436161538000, -1.840000000000000100, 0.9000000000000012400 ) ) ;
#126 = PRODUCT_DEFINITION ( 'UNKNOWN', '', #119, #86 ) ;
#127 = DIRECTION ( 'NONE',  ( 9.714451465470109900E-017, 2.317134464340891000E-034, -1.000000000000000000 ) ) ;
#128 = CARTESIAN_POINT ( 'NONE',  ( 0.0000000000000000000, -0.4600000000000011300, -2.961875529630960700E-035 ) ) ;
#129 = CARTESIAN_POINT ( 'NONE',  ( 0.4358898943540683300, -0.3999999999999979100, 0.9000000000000012400 ) ) ;
#130 = FACE_BOUND ( 'NONE', #337, .T. ) ;
#131 = DIRECTION ( 'NONE',  ( -3.611118645726067200E-034, -1.000000000000000000, 2.241902825888266700E-034 ) ) ;
#132 = PERSON_AND_ORGANIZATION_ROLE ( 'design_owner' ) ;
#133 = DIRECTION ( 'NONE',  ( -1.224646799147351200E-016, 1.000000000000000000, 3.081487911019572600E-033 ) ) ;
#134 = VERTEX_POINT ( 'NONE', #72 ) ;
#135 = APPROVAL_DATE_TIME ( #113, #217 ) ;
#136 = DIRECTION ( 'NONE',  ( -1.000000000000000000, -4.333342374871273800E-034, 1.110223024625154700E-016 ) ) ;
#137 = CARTESIAN_POINT ( 'NONE',  ( -0.7198042436161538000, 0.7799999999999977000, 0.9000000000000012400 ) ) ;
#138 = FACE_OUTER_BOUND ( 'NONE', #198, .T. ) ;
#139 = AXIS2_PLACEMENT_3D ( 'NONE', #316, #11, #189 ) ;
#140 = DIRECTION ( 'NONE',  ( 1.224646799147354400E-016, -1.000000000000000000, -3.081487911019577400E-033 ) ) ;
#141 = CARTESIAN_POINT ( 'NONE',  ( -0.4358898943540685000, -0.3999999999999979100, -0.9000000000000001300 ) ) ;
#142 = VERTEX_POINT ( 'NONE', #245 ) ;
#143 = EDGE_LOOP ( 'NONE', ( #194, #181, #122, #16 ) ) ;
#144 = CARTESIAN_POINT ( 'NONE',  ( 5.775772661326065300E-019, -0.3999999999999979100, 0.9000000000000012400 ) ) ;
#145 = DATE_AND_TIME ( #281, #75 ) ;
#146 = AXIS2_PLACEMENT_3D ( 'NONE', #191, #18, #311 ) ;
#147 = FACE_OUTER_BOUND ( 'NONE', #275, .T. ) ;
#148 = CARTESIAN_POINT ( 'NONE',  ( -0.4358898943540685000, 0.7000000000000007300, -0.9000000000000001300 ) ) ;
#149 = EDGE_LOOP ( 'NONE', ( #283 ) ) ;
#150 = DIMENSIONAL_EXPONENTS ( 1.000000000000000000, 0.0000000000000000000, 0.0000000000000000000, 0.0000000000000000000, 0.0000000000000000000, 0.0000000000000000000, 0.0000000000000000000 ) ;
#151 = PERSON_AND_ORGANIZATION_ROLE ( 'creator' ) ;
#152 = PERSON_AND_ORGANIZATION ( #161, #247 ) ;
#153 = CARTESIAN_POINT ( 'NONE',  ( 1.365923996832132100E-016, -0.3200000000000009500, 2.813781753149412600E-033 ) ) ;
#154 = DIRECTION ( 'NONE',  ( 1.387778780781443400E-017, -2.377319775102990400E-034, 1.000000000000000000 ) ) ;
#155 = EDGE_CURVE ( 'NONE', #103, #254, #9, .T. ) ;
#156 = FACE_OUTER_BOUND ( 'NONE', #39, .T. ) ;
#157 = VERTEX_POINT ( 'NONE', #118 ) ;
#158 = CC_DESIGN_DATE_AND_TIME_ASSIGNMENT ( #145, #97, ( #52 ) ) ;
#159 = DIRECTION ( 'NONE',  ( 1.387778780781443700E-017, 0.0000000000000000000, 1.000000000000000000 ) ) ;
#160 = ORIENTED_EDGE ( 'NONE', *, *, #166, .T. ) ;
#161 = PERSON ( 'UNSPECIFIED', 'UNSPECIFIED', 'UNSPECIFIED', ('UNSPECIFIED'), ('UNSPECIFIED'), ('UNSPECIFIED') ) ;
#162 = APPROVAL_PERSON_ORGANIZATION ( #186, #217, #20 ) ;
#163 = AXIS2_PLACEMENT_3D ( 'NONE', #167, #98, #350 ) ;
#164 = DIRECTION ( 'NONE',  ( -1.224646799147354400E-016, 1.000000000000000000, 3.081487911019577400E-033 ) ) ;
#165 = EDGE_LOOP ( 'NONE', ( #259 ) ) ;
#166 = EDGE_CURVE ( 'NONE', #109, #249, #1, .T. ) ;
#167 = CARTESIAN_POINT ( 'NONE',  ( 1.184750211852384300E-034, 0.7799999999999977000, -8.885626588892882200E-035 ) ) ;
#168 = EDGE_CURVE ( 'NONE', #13, #13, #201, .T. ) ;
#169 = CARTESIAN_POINT ( 'NONE',  ( 1.184750211852384300E-034, 0.7000000000000007300, -8.885626588892882200E-035 ) ) ;
#170 = CARTESIAN_POINT ( 'NONE',  ( -0.4358898943540684400, 0.7000000000000007300, 0.9000000000000012400 ) ) ;
#171 = MANIFOLD_SOLID_BREP ( 'Extrude5', #370 ) ;
#172 = FACE_OUTER_BOUND ( 'NONE', #377, .T. ) ;
#173 = ORIENTED_EDGE ( 'NONE', *, *, #15, .F. ) ;
#174 = PERSON_AND_ORGANIZATION ( #161, #247 ) ;
#175 = ORIENTED_EDGE ( 'NONE', *, *, #168, .T. ) ;
#176 = EDGE_CURVE ( 'NONE', #199, #199, #273, .T. ) ;
#177 = CARTESIAN_POINT ( 'NONE',  ( -1.184750211852384300E-034, -0.3999999999999979100, 2.961875529630960700E-035 ) ) ;
#178 = DIRECTION ( 'NONE',  ( -1.000000000000000000, -1.274182832865792400E-016, 1.387778780781443400E-017 ) ) ;
#179 = AXIS2_PLACEMENT_3D ( 'NONE', #284, #243, #183 ) ;
#180 = EDGE_CURVE ( 'NONE', #232, #115, #302, .T. ) ;
#181 = ORIENTED_EDGE ( 'NONE', *, *, #15, .T. ) ;
#182 = VECTOR ( 'NONE', #340, 39.37007874015748100 ) ;
#183 = DIRECTION ( 'NONE',  ( -1.387778780781443400E-017, 2.377319775102990400E-034, -1.000000000000000000 ) ) ;
#184 = ORIENTED_EDGE ( 'NONE', *, *, #225, .F. ) ;
#185 = ORIENTED_EDGE ( 'NONE', *, *, #6, .T. ) ;
#186 = PERSON_AND_ORGANIZATION ( #161, #247 ) ;
#187 = APPROVAL_ROLE ( '' ) ;
#188 = AXIS2_PLACEMENT_3D ( 'NONE', #169, #10, #35 ) ;
#189 = DIRECTION ( 'NONE',  ( -1.387778780781443400E-017, 2.377319775102990400E-034, -1.000000000000000000 ) ) ;
#190 = VERTEX_POINT ( 'NONE', #354 ) ;
#191 = CARTESIAN_POINT ( 'NONE',  ( -2.369500423704768600E-034, -1.840000000000000100, 5.923751059261921500E-035 ) ) ;
#192 = CYLINDRICAL_SURFACE ( 'NONE', #104, 1.000000000000001600 ) ;
#193 = ORIENTED_EDGE ( 'NONE', *, *, #176, .F. ) ;
#194 = ORIENTED_EDGE ( 'NONE', *, *, #166, .F. ) ;
#195 = CARTESIAN_POINT ( 'NONE',  ( 1.184750211852384300E-034, 0.7000000000000007300, -8.885626588892882200E-035 ) ) ;
#196 = LOCAL_TIME ( 14, 58, 30.00000000000000000, #224 ) ;
#197 = PRODUCT_RELATED_PRODUCT_CATEGORY ( 'detail', '', ( #120 ) ) ;
#198 = EDGE_LOOP ( 'NONE', ( #3, #364, #230, #229 ) ) ;
#199 = VERTEX_POINT ( 'NONE', #114 ) ;
#200 = COORDINATED_UNIVERSAL_TIME_OFFSET ( 5, 0, .BEHIND. ) ;
#201 = CIRCLE ( 'NONE', #163, 0.6576485572113387500 ) ;
#202 = CC_DESIGN_PERSON_AND_ORGANIZATION_ASSIGNMENT ( #152, #347, ( #119 ) ) ;
#203 = CALENDAR_DATE ( 2017, 16, 8 ) ;
#204 = CARTESIAN_POINT ( 'NONE',  ( 0.4358898943540685500, 0.7799999999999977000, -0.9000000000000012400 ) ) ;
#205 = APPROVAL_STATUS ( 'not_yet_approved' ) ;
#206 = EDGE_CURVE ( 'NONE', #157, #249, #209, .T. ) ;
#207 = DIRECTION ( 'NONE',  ( -3.611118645726067200E-034, -1.000000000000000000, 2.241902825888266700E-034 ) ) ;
#208 = CC_DESIGN_DATE_AND_TIME_ASSIGNMENT ( #332, #322, ( #126 ) ) ;
#209 = CIRCLE ( 'NONE', #282, 1.000000000000001600 ) ;
#210 = ORIENTED_EDGE ( 'NONE', *, *, #155, .F. ) ;
#211 = LOCAL_TIME ( 14, 58, 30.00000000000000000, #5 ) ;
#212 = DIRECTION ( 'NONE',  ( -1.000000000000000000, -3.851859888774468300E-034, -9.714451465470111100E-017 ) ) ;
#213 = EDGE_CURVE ( 'NONE', #109, #190, #53, .T. ) ;
#214 = VERTEX_POINT ( 'NONE', #226 ) ;
#215 = EDGE_CURVE ( 'NONE', #103, #190, #108, .T. ) ;
#216 = FACE_BOUND ( 'NONE', #365, .T. ) ;
#217 = APPROVAL ( #345, 'UNSPECIFIED' ) ;
#218 = DIRECTION ( 'NONE',  ( -3.611118645726067200E-034, -1.000000000000000000, 2.241902825888266700E-034 ) ) ;
#219 = ADVANCED_FACE ( 'NONE', ( #61 ), #107, .F. ) ;
#220 = VERTEX_POINT ( 'NONE', #251 ) ;
#221 = CYLINDRICAL_SURFACE ( 'NONE', #67, 0.5360000000000008100 ) ;
#222 = ORIENTED_EDGE ( 'NONE', *, *, #225, .T. ) ;
#223 = DIRECTION ( 'NONE',  ( 1.110223024625154700E-016, -2.271995481269313400E-034, 1.000000000000000000 ) ) ;
#224 = COORDINATED_UNIVERSAL_TIME_OFFSET ( 5, 0, .BEHIND. ) ;
#225 = EDGE_CURVE ( 'NONE', #134, #134, #306, .T. ) ;
#226 = CARTESIAN_POINT ( 'NONE',  ( -8.743006318923107800E-018, -0.4600000000000011300, -0.6300000000000008900 ) ) ;
#227 = DIRECTION ( 'NONE',  ( 3.611118645726067200E-034, 1.000000000000000000, -2.241902825888266700E-034 ) ) ;
#228 = AXIS2_PLACEMENT_3D ( 'NONE', #344, #207, #73 ) ;
#229 = ORIENTED_EDGE ( 'NONE', *, *, #215, .T. ) ;
#230 = ORIENTED_EDGE ( 'NONE', *, *, #289, .F. ) ;
#231 = APPROVAL ( #318, 'UNSPECIFIED' ) ;
#232 = VERTEX_POINT ( 'NONE', #8 ) ;
#233 = DIRECTION ( 'NONE',  ( -3.611118645726067200E-034, -1.000000000000000000, 2.241902825888266700E-034 ) ) ;
#234 = DIRECTION ( 'NONE',  ( -1.387778780781443400E-017, 0.0000000000000000000, -1.000000000000000000 ) ) ;
#235 = ORIENTED_EDGE ( 'NONE', *, *, #291, .F. ) ;
#236 = DIRECTION ( 'NONE',  ( 3.611118645726067200E-034, 1.000000000000000000, -2.241902825888266700E-034 ) ) ;
#237 = UNCERTAINTY_MEASURE_WITH_UNIT (LENGTH_MEASURE( 1.000000000000000100E-005 ), #89, 'distance_accuracy_value', 'NONE');
#238 = FACE_OUTER_BOUND ( 'NONE', #352, .T. ) ;
#239 = EDGE_CURVE ( 'NONE', #214, #214, #63, .T. ) ;
#240 = CARTESIAN_POINT ( 'NONE',  ( -0.7198042436161535800, 0.7799999999999977000, -0.9000000000000012400 ) ) ;
#241 = LINE ( 'NONE', #240, #359 ) ;
#242 = ADVANCED_FACE ( 'NONE', ( #328, #123 ), #307, .T. ) ;
#243 = DIRECTION ( 'NONE',  ( -3.611118645726066800E-034, -1.000000000000000000, -2.377319775102990400E-034 ) ) ;
#244 = LENGTH_MEASURE_WITH_UNIT ( LENGTH_MEASURE( 0.02539999999999999900 ), #252 );
#245 = CARTESIAN_POINT ( 'NONE',  ( -7.438494264988547700E-018, -1.840000000000000100, -0.5360000000000008100 ) ) ;
#246 =( GEOMETRIC_REPRESENTATION_CONTEXT ( 3 ) GLOBAL_UNCERTAINTY_ASSIGNED_CONTEXT ( ( #237 ) ) GLOBAL_UNIT_ASSIGNED_CONTEXT ( ( #89, #263, #50 ) ) REPRESENTATION_CONTEXT ( 'NONE', 'WORKASPACE' ) );
#247 = ORGANIZATION ( 'UNSPECIFIED', 'UNSPECIFIED', '' ) ;
#248 = FACE_OUTER_BOUND ( 'NONE', #110, .T. ) ;
#249 = VERTEX_POINT ( 'NONE', #129 ) ;
#250 = CARTESIAN_POINT ( 'NONE',  ( 1.365923996832132100E-016, -0.3200000000000009500, 2.813781753149412600E-033 ) ) ;
#251 = CARTESIAN_POINT ( 'NONE',  ( -0.5360000000000008100, -0.3200000000000010100, 7.438494264988547700E-018 ) ) ;
#252 =( LENGTH_UNIT ( ) NAMED_UNIT ( * ) SI_UNIT ( $, .METRE. ) );
#253 = AXIS2_PLACEMENT_3D ( 'NONE', #177, #236, #66 ) ;
#254 = VERTEX_POINT ( 'NONE', #141 ) ;
#255 = PLANE ( 'NONE',  #62 ) ;
#256 = ADVANCED_FACE ( 'NONE', ( #172, #278 ), #375, .T. ) ;
#257 = LOCAL_TIME ( 14, 58, 30.00000000000000000, #200 ) ;
#258 = ADVANCED_FACE ( 'NONE', ( #156, #357 ), #255, .T. ) ;
#259 = ORIENTED_EDGE ( 'NONE', *, *, #116, .T. ) ;
#260 = CIRCLE ( 'NONE', #308, 0.6300000000000008900 ) ;
#261 = CC_DESIGN_APPROVAL ( #305, ( #52 ) ) ;
#262 = DIRECTION ( 'NONE',  ( -3.611118645726067200E-034, -1.000000000000000000, 2.241902825888266700E-034 ) ) ;
#263 =( NAMED_UNIT ( * ) PLANE_ANGLE_UNIT ( ) SI_UNIT ( $, .RADIAN. ) );
#264 = ADVANCED_FACE ( 'NONE', ( #238 ), #192, .T. ) ;
#265 = EDGE_LOOP ( 'NONE', ( #185, #266, #160, #317 ) ) ;
#266 = ORIENTED_EDGE ( 'NONE', *, *, #213, .F. ) ;
#267 = CC_DESIGN_APPROVAL ( #231, ( #126 ) ) ;
#268 = DIRECTION ( 'NONE',  ( 3.611118645726066800E-034, 1.000000000000000000, 2.377319775102990400E-034 ) ) ;
#269 = CC_DESIGN_PERSON_AND_ORGANIZATION_ASSIGNMENT ( #112, #151, ( #119 ) ) ;
#270 = CARTESIAN_POINT ( 'NONE',  ( -0.4358898943540688300, 0.7799999999999977000, -0.8999999999999999100 ) ) ;
#271 = PERSON_AND_ORGANIZATION ( #161, #247 ) ;
#272 = PLANE ( 'NONE',  #105 ) ;
#273 = CIRCLE ( 'NONE', #253, 0.6900000000000010600 ) ;
#274 = CYLINDRICAL_SURFACE ( 'NONE', #188, 1.000000000000001600 ) ;
#275 = EDGE_LOOP ( 'NONE', ( #175 ) ) ;
#276 = DIRECTION ( 'NONE',  ( -1.387778780781443700E-017, 0.0000000000000000000, -1.000000000000000000 ) ) ;
#277 = ADVANCED_FACE ( 'NONE', ( #138, #130 ), #272, .T. ) ;
#278 = FACE_OUTER_BOUND ( 'NONE', #29, .T. ) ;
#279 = FACE_OUTER_BOUND ( 'NONE', #143, .T. ) ;
#280 = ORIENTED_EDGE ( 'NONE', *, *, #206, .F. ) ;
#281 = CALENDAR_DATE ( 2017, 16, 8 ) ;
#282 = AXIS2_PLACEMENT_3D ( 'NONE', #27, #233, #309 ) ;
#283 = ORIENTED_EDGE ( 'NONE', *, *, #116, .F. ) ;
#284 = CARTESIAN_POINT ( 'NONE',  ( -1.184750211852384300E-034, -0.3999999999999979100, 2.961875529630960700E-035 ) ) ;
#285 = DIRECTION ( 'NONE',  ( 3.611118645726067200E-034, 1.000000000000000000, -2.241902825888266700E-034 ) ) ;
#286 = SHAPE_DEFINITION_REPRESENTATION ( #56, #319 ) ;
#287 = TOROIDAL_SURFACE ( 'NONE', #228, 0.6900000000000000600, 0.05999999999999999800 ) ;
#288 = APPROVAL_PERSON_ORGANIZATION ( #334, #305, #36 ) ;
#289 = EDGE_CURVE ( 'NONE', #103, #115, #241, .T. ) ;
#290 = CIRCLE ( 'NONE', #367, 0.5360000000000008100 ) ;
#291 = EDGE_CURVE ( 'NONE', #157, #115, #315, .T. ) ;
#292 = PERSON_AND_ORGANIZATION_ROLE ( 'creator' ) ;
#293 = FACE_OUTER_BOUND ( 'NONE', #80, .T. ) ;
#294 = DIRECTION ( 'NONE',  ( -1.387778780781443500E-017, 0.0000000000000000000, -1.000000000000000000 ) ) ;
#295 = CC_DESIGN_SECURITY_CLASSIFICATION ( #52, ( #119 ) ) ;
#296 = DIRECTION ( 'NONE',  ( -1.000000000000000000, -1.138269997360107900E-016, 1.387778780781443700E-017 ) ) ;
#297 = FACE_BOUND ( 'NONE', #320, .T. ) ;
#298 = FACE_OUTER_BOUND ( 'NONE', #353, .T. ) ;
#299 = COORDINATED_UNIVERSAL_TIME_OFFSET ( 5, 0, .BEHIND. ) ;
#300 = DIRECTION ( 'NONE',  ( 1.000000000000000000, 0.0000000000000000000, 0.0000000000000000000 ) ) ;
#301 = EDGE_CURVE ( 'NONE', #303, #303, #260, .T. ) ;
#302 = CIRCLE ( 'NONE', #87, 1.000000000000001600 ) ;
#303 = VERTEX_POINT ( 'NONE', #70 ) ;
#304 = EDGE_LOOP ( 'NONE', ( #173, #358, #99, #121 ) ) ;
#305 = APPROVAL ( #205, 'UNSPECIFIED' ) ;
#306 = CIRCLE ( 'NONE', #43, 0.6000000000000008700 ) ;
#307 = PLANE ( 'NONE',  #139 ) ;
#308 = AXIS2_PLACEMENT_3D ( 'NONE', #12, #218, #276 ) ;
#309 = DIRECTION ( 'NONE',  ( -1.387778780781443500E-017, 0.0000000000000000000, -1.000000000000000000 ) ) ;
#310 = CC_DESIGN_APPROVAL ( #217, ( #119 ) ) ;
#311 = DIRECTION ( 'NONE',  ( -1.387778780781443400E-017, 0.0000000000000000000, -1.000000000000000000 ) ) ;
#312 = DIRECTION ( 'NONE',  ( 1.000000000000000000, 4.333342374871273800E-034, -1.110223024625154700E-016 ) ) ;
#313 = AXIS2_PLACEMENT_3D ( 'NONE', #125, #127, #327 ) ;
#314 = VECTOR ( 'NONE', #41, 39.37007874015748100 ) ;
#315 = LINE ( 'NONE', #325, #25 ) ;
#316 = CARTESIAN_POINT ( 'NONE',  ( -2.369500423704768600E-034, -1.840000000000000100, 5.923751059261921500E-035 ) ) ;
#317 = ORIENTED_EDGE ( 'NONE', *, *, #331, .F. ) ;
#318 = APPROVAL_STATUS ( 'not_yet_approved' ) ;
#319 = ADVANCED_BREP_SHAPE_REPRESENTATION ( '5529010', ( #171, #81 ), #246 ) ;
#320 = EDGE_LOOP ( 'NONE', ( #184 ) ) ;
#321 = DIRECTION ( 'NONE',  ( 1.000000000000000000, 4.574083617919679200E-034, -9.714451465470106200E-017 ) ) ;
#322 = DATE_TIME_ROLE ( 'creation_date' ) ;
#323 = AXIS2_PLACEMENT_3D ( 'NONE', #356, #285, #159 ) ;
#324 = PLANE ( 'NONE',  #179 ) ;
#325 = CARTESIAN_POINT ( 'NONE',  ( 0.4358898943540682700, 0.7000000000000007300, -0.9000000000000012400 ) ) ;
#326 = CARTESIAN_POINT ( 'NONE',  ( 1.184750211852384300E-034, 0.7800393700787390200, -5.923751059261921500E-035 ) ) ;
#327 = DIRECTION ( 'NONE',  ( -1.000000000000000000, -3.370377402677659300E-034, -9.714451465470109900E-017 ) ) ;
#328 = FACE_BOUND ( 'NONE', #26, .T. ) ;
#329 = AXIS2_PLACEMENT_3D ( 'NONE', #333, #7, #102 ) ;
#330 = FACE_OUTER_BOUND ( 'NONE', #304, .T. ) ;
#331 = EDGE_CURVE ( 'NONE', #232, #249, #24, .T. ) ;
#332 = DATE_AND_TIME ( #203, #196 ) ;
#333 = CARTESIAN_POINT ( 'NONE',  ( 1.184750211852384300E-034, 0.7799999999999977000, -8.885626588892882200E-035 ) ) ;
#334 = PERSON_AND_ORGANIZATION ( #161, #247 ) ;
#335 = CARTESIAN_POINT ( 'NONE',  ( 0.0000000000000000000, 0.0000000000000000000, 0.0000000000000000000 ) ) ;
#336 = VECTOR ( 'NONE', #212, 39.37007874015748100 ) ;
#337 = EDGE_LOOP ( 'NONE', ( #14 ) ) ;
#338 = LOCAL_TIME ( 14, 58, 30.00000000000000000, #299 ) ;
#339 = DIRECTION ( 'NONE',  ( -3.611118645726067200E-034, -1.000000000000000000, 2.241902825888266700E-034 ) ) ;
#340 = DIRECTION ( 'NONE',  ( 3.611118645726067200E-034, 1.000000000000000000, -2.241902825888266700E-034 ) ) ;
#341 = AXIS2_PLACEMENT_3D ( 'NONE', #342, #223, #312 ) ;
#342 = CARTESIAN_POINT ( 'NONE',  ( -0.7198042436161535800, -1.840000000000000100, -0.9000000000000012400 ) ) ;
#343 = DIRECTION ( 'NONE',  ( 1.387778780781443500E-017, 0.0000000000000000000, 1.000000000000000000 ) ) ;
#344 = CARTESIAN_POINT ( 'NONE',  ( 0.0000000000000000000, -0.4600000000000011300, -2.961875529630960700E-035 ) ) ;
#345 = APPROVAL_STATUS ( 'not_yet_approved' ) ;
#346 = APPROVAL_DATE_TIME ( #60, #305 ) ;
#347 = PERSON_AND_ORGANIZATION_ROLE ( 'design_supplier' ) ;
#348 = EDGE_CURVE ( 'NONE', #142, #142, #363, .T. ) ;
#349 = CC_DESIGN_PERSON_AND_ORGANIZATION_ASSIGNMENT ( #174, #292, ( #126 ) ) ;
#350 = DIRECTION ( 'NONE',  ( -1.000000000000000000, -2.076981667266373900E-016, 1.387778780781443500E-017 ) ) ;
#351 = DIRECTION ( 'NONE',  ( -3.611118645726067200E-034, -1.000000000000000000, 2.241902825888266700E-034 ) ) ;
#352 = EDGE_LOOP ( 'NONE', ( #371, #88, #280, #92 ) ) ;
#353 = EDGE_LOOP ( 'NONE', ( #193 ) ) ;
#354 = CARTESIAN_POINT ( 'NONE',  ( -0.4358898943540687200, 0.7799999999999977000, 0.9000000000000013500 ) ) ;
#355 = FACE_OUTER_BOUND ( 'NONE', #94, .T. ) ;
#356 = CARTESIAN_POINT ( 'NONE',  ( -2.369500423704768600E-034, -1.840000000000000100, 5.923751059261921500E-035 ) ) ;
#357 = FACE_BOUND ( 'NONE', #165, .T. ) ;
#358 = ORIENTED_EDGE ( 'NONE', *, *, #213, .T. ) ;
#359 = VECTOR ( 'NONE', #321, 39.37007874015748100 ) ;
#360 = EDGE_CURVE ( 'NONE', #157, #254, #366, .T. ) ;
#361 = DIRECTION ( 'NONE',  ( -1.000000000000000000, -1.138269997360107900E-016, 1.387778780781443700E-017 ) ) ;
#362 = APPLICATION_CONTEXT ( 'configuration controlled 3d designs of mechanical parts and assemblies' ) ;
#363 = CIRCLE ( 'NONE', #146, 0.5360000000000008100 ) ;
#364 = ORIENTED_EDGE ( 'NONE', *, *, #180, .T. ) ;
#365 = EDGE_LOOP ( 'NONE', ( #111 ) ) ;
#366 = LINE ( 'NONE', #64, #28 ) ;
#367 = AXIS2_PLACEMENT_3D ( 'NONE', #82, #140, #178 ) ;
#368 = SECURITY_CLASSIFICATION_LEVEL ( 'unclassified' ) ;
#369 = VECTOR ( 'NONE', #351, 39.37007874015748100 ) ;
#370 = CLOSED_SHELL ( 'NONE', ( #264, #277, #77, #71, #22, #256, #242, #33, #258, #117, #374, #219 ) ) ;
#371 = ORIENTED_EDGE ( 'NONE', *, *, #180, .F. ) ;
#372 = APPROVAL_DATE_TIME ( #46, #231 ) ;
#373 = PERSON_AND_ORGANIZATION ( #161, #247 ) ;
#374 = ADVANCED_FACE ( 'NONE', ( #248 ), #17, .F. ) ;
#375 = CYLINDRICAL_SURFACE ( 'NONE', #323, 0.6300000000000008900 ) ;
#376 = APPROVAL_PERSON_ORGANIZATION ( #58, #231, #187 ) ;
#377 = EDGE_LOOP ( 'NONE', ( #69 ) ) ;
#378 = CC_DESIGN_PERSON_AND_ORGANIZATION_ASSIGNMENT ( #373, #90, ( #52 ) ) ;
ENDSEC;
END-ISO-10303-21;
