ISO-10303-21;
HEADER;
FILE_DESCRIPTION (( 'STEP AP203' ),
    '1' );
FILE_NAME ('5529007.STEP',
    '2017-08-16T18:49:58',
    ( '' ),
    ( '' ),
    'SwSTEP 2.0',
    'SolidWorks 2017',
    '' );
FILE_SCHEMA (( 'CONFIG_CONTROL_DESIGN' ));
ENDSEC;

DATA;
#1 = APPLICATION_PROTOCOL_DEFINITION ( 'international standard', 'config_control_design', 1994, #365 ) ;
#2 = VERTEX_POINT ( 'NONE', #265 ) ;
#3 = CC_DESIGN_PERSON_AND_ORGANIZATION_ASSIGNMENT ( #51, #293, ( #164 ) ) ;
#4 = CALENDAR_DATE ( 2017, 16, 8 ) ;
#5 = ORIENTED_EDGE ( 'NONE', *, *, #142, .F. ) ;
#6 = DIRECTION ( 'NONE',  ( -1.000000000000000000, -3.697785493223492800E-032, 1.221800777605805100E-016 ) ) ;
#7 = DATE_AND_TIME ( #17, #27 ) ;
#8 = CARTESIAN_POINT ( 'NONE',  ( -1.221800777605804600E-016, 0.0000000000000000000, 1.000000000000002000 ) ) ;
#9 = ORIENTED_EDGE ( 'NONE', *, *, #59, .F. ) ;
#10 = ORIENTED_EDGE ( 'NONE', *, *, #142, .T. ) ;
#11 = DIRECTION ( 'NONE',  ( 1.000000000000000000, 3.697785493223492800E-032, -1.221800777605805100E-016 ) ) ;
#12 = CARTESIAN_POINT ( 'NONE',  ( -9.163505832043537000E-017, 0.0000000000000000000, 0.7500000000000015500 ) ) ;
#13 = DESIGN_CONTEXT ( 'detailed design', #230, 'design' ) ;
#14 = EDGE_CURVE ( 'NONE', #327, #327, #36, .T. ) ;
#15 = APPROVAL ( #93, 'UNSPECIFIED' ) ;
#16 = AXIS2_PLACEMENT_3D ( 'NONE', #187, #127, #120 ) ;
#17 = CALENDAR_DATE ( 2017, 16, 8 ) ;
#18 = ORIENTED_EDGE ( 'NONE', *, *, #14, .T. ) ;
#19 = LOCAL_TIME ( 14, 49, 58.00000000000000000, #44 ) ;
#20 = DIRECTION ( 'NONE',  ( -1.000000000000000000, -3.697785493223492800E-032, 1.689892686993429700E-016 ) ) ;
#21 = DIRECTION ( 'NONE',  ( 1.221800777605803900E-016, 3.515124175761511300E-016, -1.000000000000000000 ) ) ;
#22 = APPROVAL_DATE_TIME ( #107, #86 ) ;
#23 = CIRCLE ( 'NONE', #337, 0.8082903768654762200 ) ;
#24 = EDGE_LOOP ( 'NONE', ( #18 ) ) ;
#25 = CARTESIAN_POINT ( 'NONE',  ( 0.0000000000000000000, 0.0000000000000000000, 0.0000000000000000000 ) ) ;
#26 = EDGE_LOOP ( 'NONE', ( #102, #303, #76, #108 ) ) ;
#27 = LOCAL_TIME ( 14, 49, 58.00000000000000000, #319 ) ;
#28 = DIRECTION ( 'NONE',  ( 1.000000000000000000, 3.697785493223492800E-032, -1.221800777605804800E-016 ) ) ;
#29 = FACE_OUTER_BOUND ( 'NONE', #242, .T. ) ;
#30 = ORIENTED_EDGE ( 'NONE', *, *, #163, .T. ) ;
#31 = EDGE_LOOP ( 'NONE', ( #9 ) ) ;
#32 = LOCAL_TIME ( 14, 49, 58.00000000000000000, #170 ) ;
#33 = ORIENTED_EDGE ( 'NONE', *, *, #279, .T. ) ;
#34 = AXIS2_PLACEMENT_3D ( 'NONE', #130, #308, #262 ) ;
#35 = PERSON_AND_ORGANIZATION ( #137, #82 ) ;
#36 = CIRCLE ( 'NONE', #78, 0.5173058344622757400 ) ;
#37 = VERTEX_POINT ( 'NONE', #83 ) ;
#38 = ORIENTED_EDGE ( 'NONE', *, *, #235, .F. ) ;
#39 = VERTEX_POINT ( 'NONE', #299 ) ;
#40 = DIRECTION ( 'NONE',  ( -1.221800777605803900E-016, -3.515124175761511300E-016, 1.000000000000000000 ) ) ;
#41 = DIRECTION ( 'NONE',  ( -1.221800777605803600E-016, -2.290477376614158900E-016, 1.000000000000000000 ) ) ;
#42 = PLANE ( 'NONE',  #34 ) ;
#43 = EDGE_CURVE ( 'NONE', #148, #72, #114, .T. ) ;
#44 = COORDINATED_UNIVERSAL_TIME_OFFSET ( 5, 0, .BEHIND. ) ;
#45 = FACE_OUTER_BOUND ( 'NONE', #218, .T. ) ;
#46 = DIRECTION ( 'NONE',  ( 1.221800777605805100E-016, -2.290477376614158900E-016, 1.000000000000000000 ) ) ;
#47 = ORIENTED_EDGE ( 'NONE', *, *, #163, .F. ) ;
#48 = ORIENTED_EDGE ( 'NONE', *, *, #202, .T. ) ;
#49 = TOROIDAL_SURFACE ( 'NONE', #309, 0.6099999999999999900, 0.1200000000000000000 ) ;
#50 = VECTOR ( 'NONE', #211, 39.37007874015748100 ) ;
#51 = PERSON_AND_ORGANIZATION ( #137, #82 ) ;
#52 = PERSON_AND_ORGANIZATION ( #137, #82 ) ;
#53 = EDGE_LOOP ( 'NONE', ( #125 ) ) ;
#54 = EDGE_LOOP ( 'NONE', ( #205 ) ) ;
#55 = EDGE_LOOP ( 'NONE', ( #100 ) ) ;
#56 = UNCERTAINTY_MEASURE_WITH_UNIT (LENGTH_MEASURE( 1.000000000000000100E-005 ), #203, 'distance_accuracy_value', 'NONE');
#57 = CARTESIAN_POINT ( 'NONE',  ( 0.7080310770939105500, -0.7500000000000004400, 2.000000000000002200 ) ) ;
#58 = LENGTH_MEASURE_WITH_UNIT ( LENGTH_MEASURE( 0.02539999999999999900 ), #183 );
#59 = EDGE_CURVE ( 'NONE', #257, #257, #119, .T. ) ;
#60 = ADVANCED_FACE ( 'NONE', ( #70, #141 ), #150, .T. ) ;
#61 = DIRECTION ( 'NONE',  ( 0.0000000000000000000, 0.0000000000000000000, 1.000000000000000000 ) ) ;
#62 = ORIENTED_EDGE ( 'NONE', *, *, #59, .T. ) ;
#63 = APPROVAL ( #267, 'UNSPECIFIED' ) ;
#64 = DIRECTION ( 'NONE',  ( 1.000000000000000000, -3.386499646500390100E-032, 1.221800777605803600E-016 ) ) ;
#65 = DIRECTION ( 'NONE',  ( 3.172552868558686300E-032, 1.000000000000000000, 0.0000000000000000000 ) ) ;
#66 = VERTEX_POINT ( 'NONE', #79 ) ;
#67 = ADVANCED_FACE ( 'NONE', ( #45, #307 ), #49, .F. ) ;
#68 = DIRECTION ( 'NONE',  ( -1.221800777605803600E-016, -2.290477376614158900E-016, 1.000000000000000000 ) ) ;
#69 = AXIS2_PLACEMENT_3D ( 'NONE', #349, #291, #11 ) ;
#70 = FACE_OUTER_BOUND ( 'NONE', #247, .T. ) ;
#71 = AXIS2_PLACEMENT_3D ( 'NONE', #372, #144, #151 ) ;
#72 = VERTEX_POINT ( 'NONE', #343 ) ;
#73 = CARTESIAN_POINT ( 'NONE',  ( 0.4899999999999997100, 1.811914891679511500E-032, 2.000000000000002200 ) ) ;
#74 = DATE_AND_TIME ( #4, #19 ) ;
#75 = ORIENTED_EDGE ( 'NONE', *, *, #373, .T. ) ;
#76 = ORIENTED_EDGE ( 'NONE', *, *, #235, .T. ) ;
#77 = EDGE_LOOP ( 'NONE', ( #5 ) ) ;
#78 = AXIS2_PLACEMENT_3D ( 'NONE', #155, #159, #117 ) ;
#79 = CARTESIAN_POINT ( 'NONE',  ( 0.3013856886670855900, -0.7500000000000004400, 1.000000000000002000 ) ) ;
#80 = DIRECTION ( 'NONE',  ( 1.000000000000000000, 0.0000000000000000000, 0.0000000000000000000 ) ) ;
#81 = ADVANCED_BREP_SHAPE_REPRESENTATION ( '5529007', ( #378, #109 ), #345 ) ;
#82 = ORGANIZATION ( 'UNSPECIFIED', 'UNSPECIFIED', '' ) ;
#83 = CARTESIAN_POINT ( 'NONE',  ( -0.3013856886670857000, 0.7500000000000004400, 1.000000000000002000 ) ) ;
#84 = LINE ( 'NONE', #292, #315 ) ;
#85 = DATE_AND_TIME ( #194, #32 ) ;
#86 = APPROVAL ( #153, 'UNSPECIFIED' ) ;
#87 = CARTESIAN_POINT ( 'NONE',  ( 0.6099999999999998800, 2.255649150866330400E-032, 1.000000000000001800 ) ) ;
#88 = VERTEX_POINT ( 'NONE', #169 ) ;
#89 = CC_DESIGN_APPROVAL ( #63, ( #341 ) ) ;
#90 = DIRECTION ( 'NONE',  ( -1.221800777605803600E-016, -2.290477376614158900E-016, 1.000000000000000000 ) ) ;
#91 = APPROVAL_PERSON_ORGANIZATION ( #256, #15, #248 ) ;
#92 = EDGE_CURVE ( 'NONE', #357, #357, #158, .T. ) ;
#93 = APPROVAL_STATUS ( 'not_yet_approved' ) ;
#94 = AXIS2_PLACEMENT_3D ( 'NONE', #57, #371, #358 ) ;
#95 = CARTESIAN_POINT ( 'NONE',  ( -9.163505832043537000E-017, 0.0000000000000000000, 0.7500000000000015500 ) ) ;
#96 = AXIS2_PLACEMENT_3D ( 'NONE', #317, #353, #236 ) ;
#97 = PERSON_AND_ORGANIZATION ( #137, #82 ) ;
#98 = EDGE_LOOP ( 'NONE', ( #30, #344, #48, #206 ) ) ;
#99 = DIRECTION ( 'NONE',  ( 3.172552868558686300E-032, 1.000000000000000000, 0.0000000000000000000 ) ) ;
#100 = ORIENTED_EDGE ( 'NONE', *, *, #92, .T. ) ;
#101 = EDGE_CURVE ( 'NONE', #88, #39, #172, .T. ) ;
#102 = ORIENTED_EDGE ( 'NONE', *, *, #140, .F. ) ;
#103 = EDGE_LOOP ( 'NONE', ( #75, #33, #332, #284 ) ) ;
#104 = FACE_OUTER_BOUND ( 'NONE', #26, .T. ) ;
#105 = DIRECTION ( 'NONE',  ( 1.000000000000000000, 3.697785493223492800E-032, -1.221800777605805100E-016 ) ) ;
#106 = ORIENTED_EDGE ( 'NONE', *, *, #14, .F. ) ;
#107 = DATE_AND_TIME ( #238, #145 ) ;
#108 = ORIENTED_EDGE ( 'NONE', *, *, #43, .T. ) ;
#109 = AXIS2_PLACEMENT_3D ( 'NONE', #152, #61, #80 ) ;
#110 = PLANE ( 'NONE',  #69 ) ;
#111 = DIRECTION ( 'NONE',  ( -1.221800777605803600E-016, -2.290477376614158900E-016, 1.000000000000000000 ) ) ;
#112 = DIRECTION ( 'NONE',  ( 1.000000000000000000, 3.697785493223492800E-032, -2.239219666937920800E-016 ) ) ;
#113 = EDGE_CURVE ( 'NONE', #37, #306, #168, .T. ) ;
#114 = LINE ( 'NONE', #325, #50 ) ;
#115 = DATE_TIME_ROLE ( 'creation_date' ) ;
#116 = ADVANCED_FACE ( 'NONE', ( #298, #132 ), #207, .F. ) ;
#117 = DIRECTION ( 'NONE',  ( 1.848892746611746400E-032, 1.000000000000000000, -1.065830577466806300E-016 ) ) ;
#118 = ADVANCED_FACE ( 'NONE', ( #176, #261 ), #192, .F. ) ;
#119 = CIRCLE ( 'NONE', #184, 0.4779999999999999800 ) ;
#120 = DIRECTION ( 'NONE',  ( 1.000000000000000000, 3.697785493223492800E-032, -1.221800777605804800E-016 ) ) ;
#121 = ORIENTED_EDGE ( 'NONE', *, *, #140, .T. ) ;
#122 = SECURITY_CLASSIFICATION_LEVEL ( 'unclassified' ) ;
#123 = AXIS2_PLACEMENT_3D ( 'NONE', #139, #281, #65 ) ;
#124 = ORIENTED_EDGE ( 'NONE', *, *, #178, .F. ) ;
#125 = ORIENTED_EDGE ( 'NONE', *, *, #92, .F. ) ;
#126 = ORIENTED_EDGE ( 'NONE', *, *, #178, .T. ) ;
#127 = DIRECTION ( 'NONE',  ( -1.221800777605803600E-016, -2.290477376614158900E-016, 1.000000000000000000 ) ) ;
#128 = SECURITY_CLASSIFICATION ( '', '', #122 ) ;
#129 = APPROVAL_DATE_TIME ( #243, #63 ) ;
#130 = CARTESIAN_POINT ( 'NONE',  ( -2.443601555211610200E-016, 0.0000000000000000000, 2.000000000000002200 ) ) ;
#131 = CARTESIAN_POINT ( 'NONE',  ( 0.0000000000000000000, 0.0000000000000000000, 0.0000000000000000000 ) ) ;
#132 = FACE_OUTER_BOUND ( 'NONE', #282, .T. ) ;
#133 = AXIS2_PLACEMENT_3D ( 'NONE', #321, #198, #199 ) ;
#134 = ORIENTED_EDGE ( 'NONE', *, *, #342, .F. ) ;
#135 = MECHANICAL_CONTEXT ( 'NONE', #365, 'mechanical' ) ;
#136 = DIRECTION ( 'NONE',  ( 1.221800777605803600E-016, 2.290477376614158900E-016, -1.000000000000000000 ) ) ;
#137 = PERSON ( 'UNSPECIFIED', 'UNSPECIFIED', 'UNSPECIFIED', ('UNSPECIFIED'), ('UNSPECIFIED'), ('UNSPECIFIED') ) ;
#138 = CARTESIAN_POINT ( 'NONE',  ( -7.636254860036270700E-017, 0.0000000000000000000, 0.6250000000000011100 ) ) ;
#139 = CARTESIAN_POINT ( 'NONE',  ( -9.163505832043537000E-017, 0.0000000000000000000, 0.7500000000000015500 ) ) ;
#140 = EDGE_CURVE ( 'NONE', #66, #72, #289, .T. ) ;
#141 = FACE_OUTER_BOUND ( 'NONE', #296, .T. ) ;
#142 = EDGE_CURVE ( 'NONE', #340, #340, #182, .T. ) ;
#143 = CC_DESIGN_DATE_AND_TIME_ASSIGNMENT ( #74, #253, ( #128 ) ) ;
#144 = DIRECTION ( 'NONE',  ( 1.221800777605803900E-016, -1.065830577466806400E-016, -1.000000000000000000 ) ) ;
#145 = LOCAL_TIME ( 14, 49, 58.00000000000000000, #330 ) ;
#146 = DIRECTION ( 'NONE',  ( 1.000000000000000000, 3.697785493223492800E-032, -1.689892686993429700E-016 ) ) ;
#147 = CC_DESIGN_APPROVAL ( #86, ( #323 ) ) ;
#148 = VERTEX_POINT ( 'NONE', #351 ) ;
#149 = APPROVAL_PERSON_ORGANIZATION ( #97, #63, #167 ) ;
#150 = CYLINDRICAL_SURFACE ( 'NONE', #237, 0.4899999999999999900 ) ;
#151 = DIRECTION ( 'NONE',  ( 1.848892746611746400E-032, 1.000000000000000000, -1.065830577466806400E-016 ) ) ;
#152 = CARTESIAN_POINT ( 'NONE',  ( 0.0000000000000000000, 0.0000000000000000000, 0.0000000000000000000 ) ) ;
#153 = APPROVAL_STATUS ( 'not_yet_approved' ) ;
#154 = APPROVAL_DATE_TIME ( #85, #15 ) ;
#155 = CARTESIAN_POINT ( 'NONE',  ( 0.0000000000000000000, 0.0000000000000000000, 0.0000000000000000000 ) ) ;
#156 = PERSON_AND_ORGANIZATION ( #137, #82 ) ;
#157 = DIRECTION ( 'NONE',  ( 1.000000000000000000, 3.697785493223492800E-032, 0.0000000000000000000 ) ) ;
#158 = CIRCLE ( 'NONE', #329, 0.4149999999999999200 ) ;
#159 = DIRECTION ( 'NONE',  ( 1.221800777605803900E-016, 3.515124175761511300E-016, -1.000000000000000000 ) ) ;
#160 = CARTESIAN_POINT ( 'NONE',  ( -0.3013856886670857000, -0.7500000000000004400, 0.6250000000000016700 ) ) ;
#161 = DIRECTION ( 'NONE',  ( 1.221800777605803600E-016, 2.290477376614158900E-016, -1.000000000000000000 ) ) ;
#162 = CARTESIAN_POINT ( 'NONE',  ( -0.3013856886670855400, 0.7500000000000004400, 0.0000000000000000000 ) ) ;
#163 = EDGE_CURVE ( 'NONE', #37, #72, #181, .T. ) ;
#164 = PRODUCT ( '5529007', '5529007', '', ( #135 ) ) ;
#165 = ORIENTED_EDGE ( 'NONE', *, *, #373, .F. ) ;
#166 = EDGE_CURVE ( 'NONE', #376, #376, #197, .T. ) ;
#167 = APPROVAL_ROLE ( '' ) ;
#168 = LINE ( 'NONE', #228, #175 ) ;
#169 = CARTESIAN_POINT ( 'NONE',  ( -0.3013856886670855900, -0.7500000000000004400, 0.0000000000000000000 ) ) ;
#170 = COORDINATED_UNIVERSAL_TIME_OFFSET ( 5, 0, .BEHIND. ) ;
#171 = CARTESIAN_POINT ( 'NONE',  ( 0.7080310770939107800, -0.7500000000000004400, 0.0000000000000000000 ) ) ;
#172 = LINE ( 'NONE', #171, #304 ) ;
#173 = CALENDAR_DATE ( 2017, 16, 8 ) ;
#174 = CC_DESIGN_PERSON_AND_ORGANIZATION_ASSIGNMENT ( #186, #360, ( #341 ) ) ;
#175 = VECTOR ( 'NONE', #288, 39.37007874015748100 ) ;
#176 = FACE_OUTER_BOUND ( 'NONE', #55, .T. ) ;
#177 = DIRECTION ( 'NONE',  ( 1.000000000000000000, 3.697785493223492800E-032, -1.221800777605805100E-016 ) ) ;
#178 = EDGE_CURVE ( 'NONE', #66, #2, #188, .T. ) ;
#179 = ADVANCED_FACE ( 'NONE', ( #193 ), #266, .F. ) ;
#180 = ORIENTED_EDGE ( 'NONE', *, *, #166, .T. ) ;
#181 = LINE ( 'NONE', #219, #311 ) ;
#182 = CIRCLE ( 'NONE', #96, 0.4899999999999999900 ) ;
#183 =( LENGTH_UNIT ( ) NAMED_UNIT ( * ) SI_UNIT ( $, .METRE. ) );
#184 = AXIS2_PLACEMENT_3D ( 'NONE', #12, #21, #99 ) ;
#185 = ORIENTED_EDGE ( 'NONE', *, *, #342, .T. ) ;
#186 = PERSON_AND_ORGANIZATION ( #137, #82 ) ;
#187 = CARTESIAN_POINT ( 'NONE',  ( 0.0000000000000000000, 0.0000000000000000000, 0.0000000000000000000 ) ) ;
#188 = LINE ( 'NONE', #324, #215 ) ;
#189 = DIRECTION ( 'NONE',  ( -1.000000000000000000, -3.697785493223492800E-032, 1.221800777605805100E-016 ) ) ;
#190 = APPROVAL_PERSON_ORGANIZATION ( #156, #86, #328 ) ;
#191 = APPLICATION_PROTOCOL_DEFINITION ( 'international standard', 'config_control_design', 1994, #230 ) ;
#192 = CYLINDRICAL_SURFACE ( 'NONE', #331, 0.4149999999999999200 ) ;
#193 = FACE_OUTER_BOUND ( 'NONE', #283, .T. ) ;
#194 = CALENDAR_DATE ( 2017, 16, 8 ) ;
#195 = CARTESIAN_POINT ( 'NONE',  ( 0.4899999999999998200, 1.811914891679511500E-032, 1.120000000000001700 ) ) ;
#196 =( NAMED_UNIT ( * ) SI_UNIT ( $, .STERADIAN. ) SOLID_ANGLE_UNIT ( ) );
#197 = CIRCLE ( 'NONE', #277, 0.4149999999999999200 ) ;
#198 = DIRECTION ( 'NONE',  ( 2.515526168651786100E-032, -1.000000000000000000, -2.290477376614158900E-016 ) ) ;
#199 = DIRECTION ( 'NONE',  ( 1.221800777605803600E-016, 2.290477376614158900E-016, -1.000000000000000000 ) ) ;
#200 = DIRECTION ( 'NONE',  ( 1.221800777605803600E-016, 2.290477376614158900E-016, -1.000000000000000000 ) ) ;
#201 = EDGE_CURVE ( 'NONE', #66, #39, #84, .T. ) ;
#202 = EDGE_CURVE ( 'NONE', #148, #306, #212, .T. ) ;
#203 =( CONVERSION_BASED_UNIT ( 'INCH', #58 ) LENGTH_UNIT ( ) NAMED_UNIT ( #249 ) );
#204 = PERSON_AND_ORGANIZATION_ROLE ( 'creator' ) ;
#205 = ORIENTED_EDGE ( 'NONE', *, *, #166, .F. ) ;
#206 = ORIENTED_EDGE ( 'NONE', *, *, #113, .F. ) ;
#207 = PLANE ( 'NONE',  #268 ) ;
#208 = AXIS2_PLACEMENT_3D ( 'NONE', #8, #322, #146 ) ;
#209 = CARTESIAN_POINT ( 'NONE',  ( 0.4149999999999996500, 1.534580979687749400E-032, 2.000000000000002200 ) ) ;
#210 = CC_DESIGN_SECURITY_CLASSIFICATION ( #128, ( #341 ) ) ;
#211 = DIRECTION ( 'NONE',  ( -1.221800777605803600E-016, -2.290477376614158900E-016, 1.000000000000000000 ) ) ;
#212 = LINE ( 'NONE', #225, #269 ) ;
#213 = ADVANCED_FACE ( 'NONE', ( #220 ), #226, .T. ) ;
#214 = CARTESIAN_POINT ( 'NONE',  ( -1.221800777605804600E-016, 0.0000000000000000000, 1.000000000000002000 ) ) ;
#215 = VECTOR ( 'NONE', #189, 39.37007874015748100 ) ;
#216 = VECTOR ( 'NONE', #223, 39.37007874015748100 ) ;
#217 = DIRECTION ( 'NONE',  ( -1.221800777605803600E-016, -2.290477376614158900E-016, 1.000000000000000000 ) ) ;
#218 = EDGE_LOOP ( 'NONE', ( #134 ) ) ;
#219 = CARTESIAN_POINT ( 'NONE',  ( -1.221800777605803400E-016, 0.7500000000000004400, 1.000000000000001300 ) ) ;
#220 = FACE_OUTER_BOUND ( 'NONE', #103, .T. ) ;
#221 = FACE_OUTER_BOUND ( 'NONE', #98, .T. ) ;
#222 = FACE_OUTER_BOUND ( 'NONE', #305, .T. ) ;
#223 = DIRECTION ( 'NONE',  ( -1.221800777605803600E-016, -2.290477376614158900E-016, 1.000000000000000000 ) ) ;
#224 = CARTESIAN_POINT ( 'NONE',  ( -2.443601555211610200E-016, 0.0000000000000000000, 2.000000000000002200 ) ) ;
#225 = CARTESIAN_POINT ( 'NONE',  ( 0.7080310770939111100, 0.7500000000000004400, 0.0000000000000000000 ) ) ;
#226 = CYLINDRICAL_SURFACE ( 'NONE', #364, 0.8082903768654762200 ) ;
#227 = CARTESIAN_POINT ( 'NONE',  ( -9.163505832043535700E-017, 0.4149999999999999200, 0.7500000000000015500 ) ) ;
#228 = CARTESIAN_POINT ( 'NONE',  ( -0.3013856886670856500, 0.7500000000000004400, 0.6250000000000011100 ) ) ;
#229 = CARTESIAN_POINT ( 'NONE',  ( -9.163505832043535700E-017, 0.4779999999999999800, 0.7500000000000015500 ) ) ;
#230 = APPLICATION_CONTEXT ( 'configuration controlled 3d designs of mechanical parts and assemblies' ) ;
#231 = CC_DESIGN_APPROVAL ( #15, ( #128 ) ) ;
#232 = ORIENTED_EDGE ( 'NONE', *, *, #101, .F. ) ;
#233 = DIRECTION ( 'NONE',  ( 1.000000000000000000, 3.697785493223492800E-032, -1.221800777605805100E-016 ) ) ;
#234 = FACE_BOUND ( 'NONE', #369, .T. ) ;
#235 = EDGE_CURVE ( 'NONE', #39, #148, #23, .T. ) ;
#236 = DIRECTION ( 'NONE',  ( 1.000000000000000000, 3.697785493223492800E-032, 0.0000000000000000000 ) ) ;
#237 = AXIS2_PLACEMENT_3D ( 'NONE', #259, #161, #294 ) ;
#238 = CALENDAR_DATE ( 2017, 16, 8 ) ;
#239 = FACE_BOUND ( 'NONE', #53, .T. ) ;
#240 = PRODUCT_RELATED_PRODUCT_CATEGORY ( 'detail', '', ( #164 ) ) ;
#241 = ADVANCED_FACE ( 'NONE', ( #222, #234 ), #263, .T. ) ;
#242 = EDGE_LOOP ( 'NONE', ( #320 ) ) ;
#243 = DATE_AND_TIME ( #173, #338 ) ;
#244 = FACE_OUTER_BOUND ( 'NONE', #24, .T. ) ;
#245 =( NAMED_UNIT ( * ) PLANE_ANGLE_UNIT ( ) SI_UNIT ( $, .RADIAN. ) );
#246 = LINE ( 'NONE', #160, #216 ) ;
#247 = EDGE_LOOP ( 'NONE', ( #10 ) ) ;
#248 = APPROVAL_ROLE ( '' ) ;
#249 = DIMENSIONAL_EXPONENTS ( 1.000000000000000000, 0.0000000000000000000, 0.0000000000000000000, 0.0000000000000000000, 0.0000000000000000000, 0.0000000000000000000, 0.0000000000000000000 ) ;
#250 = DIRECTION ( 'NONE',  ( 1.000000000000000000, 3.697785493223493400E-032, 0.0000000000000000000 ) ) ;
#251 = FACE_OUTER_BOUND ( 'NONE', #354, .T. ) ;
#252 = CYLINDRICAL_SURFACE ( 'NONE', #347, 0.8082903768654762200 ) ;
#253 = DATE_TIME_ROLE ( 'classification_date' ) ;
#254 = ORIENTED_EDGE ( 'NONE', *, *, #279, .F. ) ;
#255 = DIRECTION ( 'NONE',  ( 3.654169328123017300E-032, 1.000000000000000000, 0.0000000000000000000 ) ) ;
#256 = PERSON_AND_ORGANIZATION ( #137, #82 ) ;
#257 = VERTEX_POINT ( 'NONE', #229 ) ;
#258 = ORIENTED_EDGE ( 'NONE', *, *, #101, .T. ) ;
#259 = CARTESIAN_POINT ( 'NONE',  ( -2.443601555211610200E-016, 0.0000000000000000000, 2.000000000000002200 ) ) ;
#260 = PLANE ( 'NONE',  #133 ) ;
#261 = FACE_OUTER_BOUND ( 'NONE', #54, .T. ) ;
#262 = DIRECTION ( 'NONE',  ( 1.000000000000000000, 3.697785493223492800E-032, -1.221800777605805100E-016 ) ) ;
#263 = PLANE ( 'NONE',  #71 ) ;
#264 = PERSON_AND_ORGANIZATION_ROLE ( 'classification_officer' ) ;
#265 = CARTESIAN_POINT ( 'NONE',  ( -0.3013856886670857000, -0.7500000000000004400, 1.000000000000002000 ) ) ;
#266 = PLANE ( 'NONE',  #94 ) ;
#267 = APPROVAL_STATUS ( 'not_yet_approved' ) ;
#268 = AXIS2_PLACEMENT_3D ( 'NONE', #356, #46, #105 ) ;
#269 = VECTOR ( 'NONE', #6, 39.37007874015748100 ) ;
#270 = ADVANCED_FACE ( 'NONE', ( #221 ), #260, .F. ) ;
#271 = ORIENTED_EDGE ( 'NONE', *, *, #201, .F. ) ;
#272 = CC_DESIGN_PERSON_AND_ORGANIZATION_ASSIGNMENT ( #52, #264, ( #128 ) ) ;
#273 = EDGE_LOOP ( 'NONE', ( #185 ) ) ;
#274 = CLOSED_SHELL ( 'NONE', ( #302, #118, #213, #116, #333, #60, #278, #67, #241, #336, #270, #179 ) ) ;
#275 = DIRECTION ( 'NONE',  ( 1.000000000000000000, 3.697785493223492800E-032, -1.689892686993429700E-016 ) ) ;
#276 = SHAPE_DEFINITION_REPRESENTATION ( #377, #81 ) ;
#277 = AXIS2_PLACEMENT_3D ( 'NONE', #95, #40, #255 ) ;
#278 = ADVANCED_FACE ( 'NONE', ( #239, #29 ), #42, .T. ) ;
#279 = EDGE_CURVE ( 'NONE', #88, #2, #246, .T. ) ;
#280 = CONICAL_SURFACE ( 'NONE', #123, 0.4779999999999999800, 0.05235987755982295100 ) ;
#281 = DIRECTION ( 'NONE',  ( 1.221800777605803900E-016, 3.515124175761511300E-016, -1.000000000000000000 ) ) ;
#282 = EDGE_LOOP ( 'NONE', ( #38, #232, #165, #295 ) ) ;
#283 = EDGE_LOOP ( 'NONE', ( #126, #254, #258, #271 ) ) ;
#284 = ORIENTED_EDGE ( 'NONE', *, *, #113, .T. ) ;
#285 = PERSON_AND_ORGANIZATION ( #137, #82 ) ;
#286 = CIRCLE ( 'NONE', #362, 0.4899999999999999900 ) ;
#287 = FACE_BOUND ( 'NONE', #31, .T. ) ;
#288 = DIRECTION ( 'NONE',  ( 1.221800777605803600E-016, 2.290477376614158900E-016, -1.000000000000000000 ) ) ;
#289 = CIRCLE ( 'NONE', #208, 0.8082903768654762200 ) ;
#290 = CARTESIAN_POINT ( 'NONE',  ( -7.636254860036270700E-017, 0.0000000000000000000, 0.6250000000000011100 ) ) ;
#291 = DIRECTION ( 'NONE',  ( 1.221800777605805100E-016, -2.290477376614158900E-016, 1.000000000000000000 ) ) ;
#292 = CARTESIAN_POINT ( 'NONE',  ( 0.3013856886670855900, -0.7500000000000004400, 0.6250000000000011100 ) ) ;
#293 = PERSON_AND_ORGANIZATION_ROLE ( 'design_owner' ) ;
#294 = DIRECTION ( 'NONE',  ( -1.000000000000000000, -3.697785493223492800E-032, 0.0000000000000000000 ) ) ;
#295 = ORIENTED_EDGE ( 'NONE', *, *, #202, .F. ) ;
#296 = EDGE_LOOP ( 'NONE', ( #310 ) ) ;
#297 = AXIS2_PLACEMENT_3D ( 'NONE', #350, #368, #112 ) ;
#298 = FACE_BOUND ( 'NONE', #366, .T. ) ;
#299 = CARTESIAN_POINT ( 'NONE',  ( 0.3013856886670855900, -0.7500000000000004400, 0.0000000000000000000 ) ) ;
#300 = CC_DESIGN_DATE_AND_TIME_ASSIGNMENT ( #7, #115, ( #323 ) ) ;
#301 = DIRECTION ( 'NONE',  ( 1.000000000000000000, 3.697785493223493400E-032, -1.221800777605805100E-016 ) ) ;
#302 = ADVANCED_FACE ( 'NONE', ( #104 ), #252, .T. ) ;
#303 = ORIENTED_EDGE ( 'NONE', *, *, #201, .T. ) ;
#304 = VECTOR ( 'NONE', #233, 39.37007874015748100 ) ;
#305 = EDGE_LOOP ( 'NONE', ( #62 ) ) ;
#306 = VERTEX_POINT ( 'NONE', #162 ) ;
#307 = FACE_OUTER_BOUND ( 'NONE', #77, .T. ) ;
#308 = DIRECTION ( 'NONE',  ( 1.221800777605805100E-016, -2.290477376614158900E-016, 1.000000000000000000 ) ) ;
#309 = AXIS2_PLACEMENT_3D ( 'NONE', #326, #68, #64 ) ;
#310 = ORIENTED_EDGE ( 'NONE', *, *, #335, .F. ) ;
#311 = VECTOR ( 'NONE', #177, 39.37007874015748100 ) ;
#312 = VERTEX_POINT ( 'NONE', #87 ) ;
#313 = CARTESIAN_POINT ( 'NONE',  ( 9.564430051172383500E-033, 0.5173058344622757400, -5.513603762718754400E-017 ) ) ;
#314 = PERSON_AND_ORGANIZATION_ROLE ( 'creator' ) ;
#315 = VECTOR ( 'NONE', #318, 39.37007874015748100 ) ;
#316 = CC_DESIGN_PERSON_AND_ORGANIZATION_ASSIGNMENT ( #285, #314, ( #323 ) ) ;
#317 = CARTESIAN_POINT ( 'NONE',  ( -1.368416870918500600E-016, 0.0000000000000000000, 1.120000000000001700 ) ) ;
#318 = DIRECTION ( 'NONE',  ( 1.221800777605803600E-016, 2.290477376614158900E-016, -1.000000000000000000 ) ) ;
#319 = COORDINATED_UNIVERSAL_TIME_OFFSET ( 5, 0, .BEHIND. ) ;
#320 = ORIENTED_EDGE ( 'NONE', *, *, #335, .T. ) ;
#321 = CARTESIAN_POINT ( 'NONE',  ( 0.7080310770939107800, 0.7500000000000004400, 2.000000000000001800 ) ) ;
#322 = DIRECTION ( 'NONE',  ( -1.221800777605803600E-016, -2.290477376614158900E-016, 1.000000000000000000 ) ) ;
#323 = PRODUCT_DEFINITION ( 'UNKNOWN', '', #341, #13 ) ;
#324 = CARTESIAN_POINT ( 'NONE',  ( -1.221800777605805800E-016, -0.7500000000000004400, 1.000000000000002000 ) ) ;
#325 = CARTESIAN_POINT ( 'NONE',  ( 0.3013856886670856500, 0.7500000000000004400, 0.6250000000000011100 ) ) ;
#326 = CARTESIAN_POINT ( 'NONE',  ( -1.368416870918500600E-016, 0.0000000000000000000, 1.120000000000001700 ) ) ;
#327 = VERTEX_POINT ( 'NONE', #313 ) ;
#328 = APPROVAL_ROLE ( '' ) ;
#329 = AXIS2_PLACEMENT_3D ( 'NONE', #224, #111, #250 ) ;
#330 = COORDINATED_UNIVERSAL_TIME_OFFSET ( 5, 0, .BEHIND. ) ;
#331 = AXIS2_PLACEMENT_3D ( 'NONE', #131, #41, #301 ) ;
#332 = ORIENTED_EDGE ( 'NONE', *, *, #375, .F. ) ;
#333 = ADVANCED_FACE ( 'NONE', ( #251, #339 ), #110, .T. ) ;
#334 = CIRCLE ( 'NONE', #297, 0.6099999999999999900 ) ;
#335 = EDGE_CURVE ( 'NONE', #367, #367, #286, .T. ) ;
#336 = ADVANCED_FACE ( 'NONE', ( #244, #287 ), #280, .F. ) ;
#337 = AXIS2_PLACEMENT_3D ( 'NONE', #25, #346, #28 ) ;
#338 = LOCAL_TIME ( 14, 49, 58.00000000000000000, #348 ) ;
#339 = FACE_BOUND ( 'NONE', #273, .T. ) ;
#340 = VERTEX_POINT ( 'NONE', #195 ) ;
#341 = PRODUCT_DEFINITION_FORMATION_WITH_SPECIFIED_SOURCE ( 'ANY', '', #164, .NOT_KNOWN. ) ;
#342 = EDGE_CURVE ( 'NONE', #312, #312, #334, .T. ) ;
#343 = CARTESIAN_POINT ( 'NONE',  ( 0.3013856886670855900, 0.7500000000000004400, 1.000000000000001300 ) ) ;
#344 = ORIENTED_EDGE ( 'NONE', *, *, #43, .F. ) ;
#345 =( GEOMETRIC_REPRESENTATION_CONTEXT ( 3 ) GLOBAL_UNCERTAINTY_ASSIGNED_CONTEXT ( ( #56 ) ) GLOBAL_UNIT_ASSIGNED_CONTEXT ( ( #203, #245, #196 ) ) REPRESENTATION_CONTEXT ( 'NONE', 'WORKASPACE' ) );
#346 = DIRECTION ( 'NONE',  ( -1.221800777605803600E-016, -2.290477376614158900E-016, 1.000000000000000000 ) ) ;
#347 = AXIS2_PLACEMENT_3D ( 'NONE', #138, #200, #20 ) ;
#348 = COORDINATED_UNIVERSAL_TIME_OFFSET ( 5, 0, .BEHIND. ) ;
#349 = CARTESIAN_POINT ( 'NONE',  ( -1.221800777605804600E-016, 0.0000000000000000000, 1.000000000000002000 ) ) ;
#350 = CARTESIAN_POINT ( 'NONE',  ( -1.221800777605804600E-016, 0.0000000000000000000, 1.000000000000002000 ) ) ;
#351 = CARTESIAN_POINT ( 'NONE',  ( 0.3013856886670857000, 0.7500000000000004400, 0.0000000000000000000 ) ) ;
#352 = DIRECTION ( 'NONE',  ( -1.000000000000000000, -3.697785493223492800E-032, 1.689892686993429700E-016 ) ) ;
#353 = DIRECTION ( 'NONE',  ( -1.221800777605803600E-016, -2.290477376614158900E-016, 1.000000000000000000 ) ) ;
#354 = EDGE_LOOP ( 'NONE', ( #124, #121, #47, #374 ) ) ;
#355 = CARTESIAN_POINT ( 'NONE',  ( -2.443601555211610200E-016, 0.0000000000000000000, 2.000000000000002200 ) ) ;
#356 = CARTESIAN_POINT ( 'NONE',  ( 0.0000000000000000000, 0.0000000000000000000, 0.0000000000000000000 ) ) ;
#357 = VERTEX_POINT ( 'NONE', #209 ) ;
#358 = DIRECTION ( 'NONE',  ( -1.221800777605803600E-016, -2.290477376614158900E-016, 1.000000000000000000 ) ) ;
#359 = CIRCLE ( 'NONE', #370, 0.8082903768654762200 ) ;
#360 = PERSON_AND_ORGANIZATION_ROLE ( 'design_supplier' ) ;
#361 = CC_DESIGN_PERSON_AND_ORGANIZATION_ASSIGNMENT ( #35, #204, ( #341 ) ) ;
#362 = AXIS2_PLACEMENT_3D ( 'NONE', #355, #217, #157 ) ;
#363 = CIRCLE ( 'NONE', #16, 0.8082903768654762200 ) ;
#364 = AXIS2_PLACEMENT_3D ( 'NONE', #290, #136, #352 ) ;
#365 = APPLICATION_CONTEXT ( 'configuration controlled 3d designs of mechanical parts and assemblies' ) ;
#366 = EDGE_LOOP ( 'NONE', ( #106 ) ) ;
#367 = VERTEX_POINT ( 'NONE', #73 ) ;
#368 = DIRECTION ( 'NONE',  ( 1.221800777605803600E-016, 2.290477376614158900E-016, -1.000000000000000000 ) ) ;
#369 = EDGE_LOOP ( 'NONE', ( #180 ) ) ;
#370 = AXIS2_PLACEMENT_3D ( 'NONE', #214, #90, #275 ) ;
#371 = DIRECTION ( 'NONE',  ( -2.515526168651786100E-032, 1.000000000000000000, 2.290477376614158900E-016 ) ) ;
#372 = CARTESIAN_POINT ( 'NONE',  ( -9.163505832043537000E-017, 0.0000000000000000000, 0.7500000000000015500 ) ) ;
#373 = EDGE_CURVE ( 'NONE', #306, #88, #363, .T. ) ;
#374 = ORIENTED_EDGE ( 'NONE', *, *, #375, .T. ) ;
#375 = EDGE_CURVE ( 'NONE', #37, #2, #359, .T. ) ;
#376 = VERTEX_POINT ( 'NONE', #227 ) ;
#377 = PRODUCT_DEFINITION_SHAPE ( 'NONE', 'NONE',  #323 ) ;
#378 = MANIFOLD_SOLID_BREP ( 'Extrude1', #274 ) ;
ENDSEC;
END-ISO-10303-21;
