ISO-10303-21;
HEADER;
FILE_DESCRIPTION (( 'STEP AP203' ),
    '1' );
FILE_NAME ('5529005.STEP',
    '2017-08-16T18:40:56',
    ( '' ),
    ( '' ),
    'SwSTEP 2.0',
    'SolidWorks 2017',
    '' );
FILE_SCHEMA (( 'CONFIG_CONTROL_DESIGN' ));
ENDSEC;

DATA;
#1 = CC_DESIGN_SECURITY_CLASSIFICATION ( #116, ( #173 ) ) ;
#2 = FACE_OUTER_BOUND ( 'NONE', #172, .T. ) ;
#3 = EDGE_LOOP ( 'NONE', ( #121 ) ) ;
#4 = APPLICATION_CONTEXT ( 'configuration controlled 3d designs of mechanical parts and assemblies' ) ;
#5 = LINE ( 'NONE', #18, #8 ) ;
#6 = EDGE_CURVE ( 'NONE', #81, #346, #5, .T. ) ;
#7 = CALENDAR_DATE ( 2017, 16, 8 ) ;
#8 = VECTOR ( 'NONE', #190, 39.37007874015748100 ) ;
#9 = ADVANCED_FACE ( 'NONE', ( #115, #43 ), #314, .F. ) ;
#10 = DIRECTION ( 'NONE',  ( 0.0000000000000000000, 0.0000000000000000000, 1.000000000000000000 ) ) ;
#11 = EDGE_LOOP ( 'NONE', ( #187 ) ) ;
#12 = DIRECTION ( 'NONE',  ( 0.0000000000000000000, 0.0000000000000000000, 1.000000000000000000 ) ) ;
#13 = DIRECTION ( 'NONE',  ( 1.666244950504105800E-068, 6.018531076210094900E-035, 1.000000000000000000 ) ) ;
#14 = DIRECTION ( 'NONE',  ( 2.648153673532449300E-034, -1.000000000000000000, -7.222237291452134400E-035 ) ) ;
#15 = AXIS2_PLACEMENT_3D ( 'NONE', #73, #87, #306 ) ;
#16 = DIRECTION ( 'NONE',  ( -2.648153673532448900E-034, 1.000000000000000000, -6.018531076210096000E-035 ) ) ;
#17 = CARTESIAN_POINT ( 'NONE',  ( 0.0000000000000000000, -2.566653734963950200E-035, -0.4264585000000011800 ) ) ;
#18 = CARTESIAN_POINT ( 'NONE',  ( 0.2923610781208734700, 0.8800000000000015600, -0.6250000000000032200 ) ) ;
#19 = DIRECTION ( 'NONE',  ( -2.648153673532448900E-034, 1.000000000000000000, -6.018531076210096000E-035 ) ) ;
#20 = EDGE_CURVE ( 'NONE', #336, #336, #47, .T. ) ;
#21 = DIRECTION ( 'NONE',  ( -2.648153673532449300E-034, 1.000000000000000000, 7.222237291452134400E-035 ) ) ;
#22 = ADVANCED_FACE ( 'NONE', ( #269, #181 ), #167, .T. ) ;
#23 = FACE_BOUND ( 'NONE', #252, .T. ) ;
#24 = ORIENTED_EDGE ( 'NONE', *, *, #200, .F. ) ;
#25 = EDGE_LOOP ( 'NONE', ( #147 ) ) ;
#26 = AXIS2_PLACEMENT_3D ( 'NONE', #41, #223, #280 ) ;
#27 = VECTOR ( 'NONE', #39, 39.37007874015748100 ) ;
#28 = EDGE_LOOP ( 'NONE', ( #302, #371, #76, #24 ) ) ;
#29 = DESIGN_CONTEXT ( 'detailed design', #4, 'design' ) ;
#30 = AXIS2_PLACEMENT_3D ( 'NONE', #137, #130, #10 ) ;
#31 = APPROVAL ( #185, 'UNSPECIFIED' ) ;
#32 = FACE_BOUND ( 'NONE', #323, .T. ) ;
#33 =( NAMED_UNIT ( * ) PLANE_ANGLE_UNIT ( ) SI_UNIT ( $, .RADIAN. ) );
#34 = CARTESIAN_POINT ( 'NONE',  ( 0.0000000000000000000, 0.0000000000000000000, 0.0000000000000000000 ) ) ;
#35 = LOCAL_TIME ( 14, 40, 56.00000000000000000, #152 ) ;
#36 = DIRECTION ( 'NONE',  ( 0.0000000000000000000, 6.018531076210096000E-035, 1.000000000000000000 ) ) ;
#37 = VERTEX_POINT ( 'NONE', #132 ) ;
#38 = AXIS2_PLACEMENT_3D ( 'NONE', #170, #345, #12 ) ;
#39 = DIRECTION ( 'NONE',  ( -2.648153673532449300E-034, 1.000000000000000000, 7.222237291452134400E-035 ) ) ;
#40 = DIRECTION ( 'NONE',  ( 0.0000000000000000000, 0.0000000000000000000, 1.000000000000000000 ) ) ;
#41 = CARTESIAN_POINT ( 'NONE',  ( 0.0000000000000000000, 0.0000000000000000000, 0.0000000000000000000 ) ) ;
#42 = CARTESIAN_POINT ( 'NONE',  ( -4.852736867747366100E-031, 0.8800000000000015600, 4.852736867747366100E-030 ) ) ;
#43 = FACE_BOUND ( 'NONE', #46, .T. ) ;
#44 = ORIENTED_EDGE ( 'NONE', *, *, #309, .F. ) ;
#45 = DIRECTION ( 'NONE',  ( 0.0000000000000000000, 0.0000000000000000000, 1.000000000000000000 ) ) ;
#46 = EDGE_LOOP ( 'NONE', ( #196 ) ) ;
#47 = CIRCLE ( 'NONE', #163, 0.3950000000000010700 ) ;
#48 = CARTESIAN_POINT ( 'NONE',  ( 1.455821060324209800E-030, 1.010000000000002700, 0.3950000000000010700 ) ) ;
#49 = DIRECTION ( 'NONE',  ( 0.0000000000000000000, 6.018531076210096000E-035, 1.000000000000000000 ) ) ;
#50 = CC_DESIGN_PERSON_AND_ORGANIZATION_ASSIGNMENT ( #329, #210, ( #366 ) ) ;
#51 = ORIENTED_EDGE ( 'NONE', *, *, #146, .F. ) ;
#52 = SECURITY_CLASSIFICATION_LEVEL ( 'unclassified' ) ;
#53 = COORDINATED_UNIVERSAL_TIME_OFFSET ( 5, 0, .BEHIND. ) ;
#54 = CIRCLE ( 'NONE', #26, 0.6900000000000016100 ) ;
#55 = FACE_OUTER_BOUND ( 'NONE', #86, .T. ) ;
#56 = APPLICATION_PROTOCOL_DEFINITION ( 'international standard', 'config_control_design', 1994, #197 ) ;
#57 = EDGE_CURVE ( 'NONE', #99, #99, #335, .T. ) ;
#58 =( CONVERSION_BASED_UNIT ( 'INCH', #298 ) LENGTH_UNIT ( ) NAMED_UNIT ( #93 ) );
#59 = CALENDAR_DATE ( 2017, 16, 8 ) ;
#60 = CIRCLE ( 'NONE', #30, 0.6900000000000016100 ) ;
#61 = DIRECTION ( 'NONE',  ( 0.0000000000000000000, 6.018531076210096000E-035, 1.000000000000000000 ) ) ;
#62 =( NAMED_UNIT ( * ) SI_UNIT ( $, .STERADIAN. ) SOLID_ANGLE_UNIT ( ) );
#63 = CARTESIAN_POINT ( 'NONE',  ( -5.560737842956974800E-016, 0.8800000000000015600, -0.6250000000000022200 ) ) ;
#64 = ORIENTED_EDGE ( 'NONE', *, *, #6, .T. ) ;
#65 = CC_DESIGN_APPROVAL ( #31, ( #212 ) ) ;
#66 = FACE_OUTER_BOUND ( 'NONE', #214, .T. ) ;
#67 = DIRECTION ( 'NONE',  ( 0.0000000000000000000, 0.0000000000000000000, 1.000000000000000000 ) ) ;
#68 = EDGE_LOOP ( 'NONE', ( #347, #272, #315, #240 ) ) ;
#69 = CARTESIAN_POINT ( 'NONE',  ( 9.705473735494732100E-031, 0.7500000000000004400, 0.3200000000000008400 ) ) ;
#70 = CARTESIAN_POINT ( 'NONE',  ( -0.2923610781208747500, 0.0000000000000000000, 0.6250000000000017800 ) ) ;
#71 = CC_DESIGN_PERSON_AND_ORGANIZATION_ASSIGNMENT ( #313, #332, ( #212 ) ) ;
#72 = DIRECTION ( 'NONE',  ( 0.0000000000000000000, 0.0000000000000000000, -1.000000000000000000 ) ) ;
#73 = CARTESIAN_POINT ( 'NONE',  ( 0.0000000000000000000, 0.0000000000000000000, 0.0000000000000000000 ) ) ;
#74 = PERSON_AND_ORGANIZATION ( #305, #242 ) ;
#75 = VECTOR ( 'NONE', #122, 39.37007874015748100 ) ;
#76 = ORIENTED_EDGE ( 'NONE', *, *, #104, .F. ) ;
#77 = ORIENTED_EDGE ( 'NONE', *, *, #283, .T. ) ;
#78 = AXIS2_PLACEMENT_3D ( 'NONE', #257, #160, #61 ) ;
#79 = ADVANCED_FACE ( 'NONE', ( #290 ), #208, .T. ) ;
#80 = EDGE_CURVE ( 'NONE', #331, #331, #114, .T. ) ;
#81 = VERTEX_POINT ( 'NONE', #165 ) ;
#82 = DATE_AND_TIME ( #312, #106 ) ;
#83 = EDGE_CURVE ( 'NONE', #238, #81, #60, .T. ) ;
#84 = CARTESIAN_POINT ( 'NONE',  ( -4.852736867747366100E-031, 0.8800000000000015600, 4.852736867747366100E-030 ) ) ;
#85 = CIRCLE ( 'NONE', #38, 0.3200000000000008400 ) ;
#86 = EDGE_LOOP ( 'NONE', ( #213 ) ) ;
#87 = DIRECTION ( 'NONE',  ( 0.0000000000000000000, 0.0000000000000000000, 1.000000000000000000 ) ) ;
#88 = ORIENTED_EDGE ( 'NONE', *, *, #104, .T. ) ;
#89 = AXIS2_PLACEMENT_3D ( 'NONE', #42, #308, #343 ) ;
#90 = DIRECTION ( 'NONE',  ( 2.648153673532449300E-034, -1.000000000000000000, -7.222237291452134400E-035 ) ) ;
#91 = PERSON_AND_ORGANIZATION_ROLE ( 'design_supplier' ) ;
#92 = CARTESIAN_POINT ( 'NONE',  ( -4.852736867747366100E-031, 0.8800000000000015600, 4.852736867747366100E-030 ) ) ;
#93 = DIMENSIONAL_EXPONENTS ( 1.000000000000000000, 0.0000000000000000000, 0.0000000000000000000, 0.0000000000000000000, 0.0000000000000000000, 0.0000000000000000000, 0.0000000000000000000 ) ;
#94 = VERTEX_POINT ( 'NONE', #191 ) ;
#95 = VECTOR ( 'NONE', #128, 39.37007874015748100 ) ;
#96 = ORIENTED_EDGE ( 'NONE', *, *, #6, .F. ) ;
#97 = EDGE_CURVE ( 'NONE', #37, #37, #265, .T. ) ;
#98 = CARTESIAN_POINT ( 'NONE',  ( 9.705473735494732100E-031, 0.7500000000000004400, 5.823284241296839300E-030 ) ) ;
#99 = VERTEX_POINT ( 'NONE', #117 ) ;
#100 = CC_DESIGN_DATE_AND_TIME_ASSIGNMENT ( #293, #330, ( #116 ) ) ;
#101 = CARTESIAN_POINT ( 'NONE',  ( 9.705473735494732100E-031, 0.7500000000000004400, 5.823284241296839300E-030 ) ) ;
#102 = AXIS2_PLACEMENT_3D ( 'NONE', #227, #118, #251 ) ;
#103 = DIRECTION ( 'NONE',  ( -2.648153673532449300E-034, 1.000000000000000000, 7.222237291452134400E-035 ) ) ;
#104 = EDGE_CURVE ( 'NONE', #260, #94, #288, .T. ) ;
#105 = AXIS2_PLACEMENT_3D ( 'NONE', #204, #16, #49 ) ;
#106 = LOCAL_TIME ( 14, 40, 56.00000000000000000, #135 ) ;
#107 = FACE_BOUND ( 'NONE', #189, .T. ) ;
#108 = VECTOR ( 'NONE', #338, 39.37007874015748100 ) ;
#109 = APPROVAL_DATE_TIME ( #178, #236 ) ;
#110 = LINE ( 'NONE', #317, #248 ) ;
#111 = CARTESIAN_POINT ( 'NONE',  ( -0.2923610781208747500, 0.8800000000000015600, 0.6250000000000017800 ) ) ;
#112 = CIRCLE ( 'NONE', #142, 0.4264585000000011800 ) ;
#113 = APPROVAL_STATUS ( 'not_yet_approved' ) ;
#114 = CIRCLE ( 'NONE', #89, 0.5250000000000013500 ) ;
#115 = FACE_OUTER_BOUND ( 'NONE', #25, .T. ) ;
#116 = SECURITY_CLASSIFICATION ( '', '', #52 ) ;
#117 = CARTESIAN_POINT ( 'NONE',  ( 9.705473735494732100E-031, 0.7500000000000004400, -0.4040024956221027200 ) ) ;
#118 = DIRECTION ( 'NONE',  ( -2.648153673532449300E-034, 1.000000000000000000, 7.222237291452134400E-035 ) ) ;
#119 = CARTESIAN_POINT ( 'NONE',  ( -5.560737842956974800E-016, 0.0000000000000000000, -0.6250000000000022200 ) ) ;
#120 = DIRECTION ( 'NONE',  ( 0.0000000000000000000, 6.018531076210096000E-035, 1.000000000000000000 ) ) ;
#121 = ORIENTED_EDGE ( 'NONE', *, *, #20, .T. ) ;
#122 = DIRECTION ( 'NONE',  ( 1.000000000000000000, -2.768524295056644300E-034, 0.0000000000000000000 ) ) ;
#123 = VERTEX_POINT ( 'NONE', #341 ) ;
#124 = EDGE_CURVE ( 'NONE', #94, #346, #54, .T. ) ;
#125 = CARTESIAN_POINT ( 'NONE',  ( -0.2923610781208747500, 0.8800000000000015600, 0.6250000000000017800 ) ) ;
#126 = ADVANCED_FACE ( 'NONE', ( #2, #55 ), #239, .F. ) ;
#127 = PERSON_AND_ORGANIZATION ( #305, #242 ) ;
#128 = DIRECTION ( 'NONE',  ( -1.000000000000000000, 2.768524295056644300E-034, 0.0000000000000000000 ) ) ;
#129 = APPROVAL ( #183, 'UNSPECIFIED' ) ;
#130 = DIRECTION ( 'NONE',  ( -2.648153673532449300E-034, 1.000000000000000000, 7.222237291452134400E-035 ) ) ;
#131 = VECTOR ( 'NONE', #226, 39.37007874015748100 ) ;
#132 = CARTESIAN_POINT ( 'NONE',  ( 2.426368433873683000E-030, 1.999999999999998400, 0.3950000000000010700 ) ) ;
#133 = CIRCLE ( 'NONE', #241, 0.3200000000000008400 ) ;
#134 = EDGE_LOOP ( 'NONE', ( #325 ) ) ;
#135 = COORDINATED_UNIVERSAL_TIME_OFFSET ( 5, 0, .BEHIND. ) ;
#136 = APPROVAL_DATE_TIME ( #82, #129 ) ;
#137 = CARTESIAN_POINT ( 'NONE',  ( -4.852736867747366100E-031, 0.8800000000000015600, 4.852736867747366100E-030 ) ) ;
#138 = APPROVAL_DATE_TIME ( #378, #31 ) ;
#139 = VERTEX_POINT ( 'NONE', #69 ) ;
#140 = ADVANCED_FACE ( 'NONE', ( #107, #340 ), #230, .F. ) ;
#141 = DIRECTION ( 'NONE',  ( -1.666244950504105800E-068, -6.018531076210094900E-035, -1.000000000000000000 ) ) ;
#142 = AXIS2_PLACEMENT_3D ( 'NONE', #202, #303, #186 ) ;
#143 = AXIS2_PLACEMENT_3D ( 'NONE', #201, #164, #45 ) ;
#144 = EDGE_LOOP ( 'NONE', ( #225 ) ) ;
#145 = CC_DESIGN_PERSON_AND_ORGANIZATION_ASSIGNMENT ( #375, #151, ( #116 ) ) ;
#146 = EDGE_CURVE ( 'NONE', #81, #123, #301, .T. ) ;
#147 = ORIENTED_EDGE ( 'NONE', *, *, #57, .T. ) ;
#148 = ORIENTED_EDGE ( 'NONE', *, *, #97, .F. ) ;
#149 = CC_DESIGN_DATE_AND_TIME_ASSIGNMENT ( #275, #299, ( #212 ) ) ;
#150 = ORIENTED_EDGE ( 'NONE', *, *, #83, .T. ) ;
#151 = PERSON_AND_ORGANIZATION_ROLE ( 'classification_officer' ) ;
#152 = COORDINATED_UNIVERSAL_TIME_OFFSET ( 5, 0, .BEHIND. ) ;
#153 = PERSON_AND_ORGANIZATION_ROLE ( 'creator' ) ;
#154 = CARTESIAN_POINT ( 'NONE',  ( 2.426368433873683000E-030, 1.999999999999998400, 0.3200000000000008400 ) ) ;
#155 = VERTEX_POINT ( 'NONE', #111 ) ;
#156 = DIRECTION ( 'NONE',  ( -1.000000000000000000, 2.768524295056644300E-034, 0.0000000000000000000 ) ) ;
#157 = PLANE ( 'NONE',  #218 ) ;
#158 = AXIS2_PLACEMENT_3D ( 'NONE', #168, #141, #220 ) ;
#159 = PERSON_AND_ORGANIZATION ( #305, #242 ) ;
#160 = DIRECTION ( 'NONE',  ( -2.648153673532448900E-034, 1.000000000000000000, -6.018531076210096000E-035 ) ) ;
#161 = CARTESIAN_POINT ( 'NONE',  ( -0.2923610781208742500, 0.0000000000000000000, -0.6250000000000033300 ) ) ;
#162 = CARTESIAN_POINT ( 'NONE',  ( 0.0000000000000000000, 0.0000000000000000000, 0.0000000000000000000 ) ) ;
#163 = AXIS2_PLACEMENT_3D ( 'NONE', #247, #205, #243 ) ;
#164 = DIRECTION ( 'NONE',  ( -2.648153673532449300E-034, 1.000000000000000000, 7.222237291452134400E-035 ) ) ;
#165 = CARTESIAN_POINT ( 'NONE',  ( 0.2923610781208734700, 0.8800000000000015600, -0.6250000000000032200 ) ) ;
#166 = PERSON_AND_ORGANIZATION ( #305, #242 ) ;
#167 = CYLINDRICAL_SURFACE ( 'NONE', #102, 0.3950000000000010700 ) ;
#168 = CARTESIAN_POINT ( 'NONE',  ( 0.7378263822482449300, 1.999999999999998400, -0.6250000000000032200 ) ) ;
#169 = AXIS2_PLACEMENT_3D ( 'NONE', #259, #103, #40 ) ;
#170 = CARTESIAN_POINT ( 'NONE',  ( 2.426368433873683000E-030, 1.999999999999998400, 2.911642120648419600E-030 ) ) ;
#171 = DIRECTION ( 'NONE',  ( 2.648153673532449300E-034, -1.000000000000000000, -7.222237291452134400E-035 ) ) ;
#172 = EDGE_LOOP ( 'NONE', ( #263 ) ) ;
#173 = PRODUCT_DEFINITION_FORMATION_WITH_SPECIFIED_SOURCE ( 'ANY', '', #366, .NOT_KNOWN. ) ;
#174 = COORDINATED_UNIVERSAL_TIME_OFFSET ( 5, 0, .BEHIND. ) ;
#175 = VERTEX_POINT ( 'NONE', #17 ) ;
#176 = UNCERTAINTY_MEASURE_WITH_UNIT (LENGTH_MEASURE( 1.000000000000000100E-005 ), #58, 'distance_accuracy_value', 'NONE');
#177 = ORIENTED_EDGE ( 'NONE', *, *, #342, .T. ) ;
#178 = DATE_AND_TIME ( #7, #35 ) ;
#179 = ORIENTED_EDGE ( 'NONE', *, *, #97, .T. ) ;
#180 = TOROIDAL_SURFACE ( 'NONE', #349, 0.5250000000000000200, 0.1300000000000000000 ) ;
#181 = FACE_OUTER_BOUND ( 'NONE', #296, .T. ) ;
#182 = AXIS2_PLACEMENT_3D ( 'NONE', #84, #90, #322 ) ;
#183 = APPROVAL_STATUS ( 'not_yet_approved' ) ;
#184 =( GEOMETRIC_REPRESENTATION_CONTEXT ( 3 ) GLOBAL_UNCERTAINTY_ASSIGNED_CONTEXT ( ( #176 ) ) GLOBAL_UNIT_ASSIGNED_CONTEXT ( ( #58, #33, #62 ) ) REPRESENTATION_CONTEXT ( 'NONE', 'WORKASPACE' ) );
#185 = APPROVAL_STATUS ( 'not_yet_approved' ) ;
#186 = DIRECTION ( 'NONE',  ( 0.0000000000000000000, -6.018531076210096000E-035, -1.000000000000000000 ) ) ;
#187 = ORIENTED_EDGE ( 'NONE', *, *, #80, .F. ) ;
#188 = DIRECTION ( 'NONE',  ( -2.648153673532449300E-034, 1.000000000000000000, 7.222237291452134400E-035 ) ) ;
#189 = EDGE_LOOP ( 'NONE', ( #334 ) ) ;
#190 = DIRECTION ( 'NONE',  ( 2.648153673532449300E-034, -1.000000000000000000, -7.222237291452134400E-035 ) ) ;
#191 = CARTESIAN_POINT ( 'NONE',  ( 0.2923610781208741400, 0.0000000000000000000, 0.6250000000000010000 ) ) ;
#192 = CARTESIAN_POINT ( 'NONE',  ( 2.426368433873683000E-030, 1.999999999999998400, 2.911642120648419600E-030 ) ) ;
#193 = CC_DESIGN_PERSON_AND_ORGANIZATION_ASSIGNMENT ( #159, #91, ( #173 ) ) ;
#194 = DIRECTION ( 'NONE',  ( 0.0000000000000000000, 0.0000000000000000000, -1.000000000000000000 ) ) ;
#195 = ADVANCED_FACE ( 'NONE', ( #333, #23 ), #337, .T. ) ;
#196 = ORIENTED_EDGE ( 'NONE', *, *, #209, .F. ) ;
#197 = APPLICATION_CONTEXT ( 'configuration controlled 3d designs of mechanical parts and assemblies' ) ;
#198 = PLANE ( 'NONE',  #105 ) ;
#199 = APPROVAL_PERSON_ORGANIZATION ( #74, #31, #361 ) ;
#200 = EDGE_CURVE ( 'NONE', #282, #260, #261, .T. ) ;
#201 = CARTESIAN_POINT ( 'NONE',  ( 2.426368433873683000E-030, 1.999999999999998400, 2.911642120648419600E-030 ) ) ;
#202 = CARTESIAN_POINT ( 'NONE',  ( 0.0000000000000000000, 0.0000000000000000000, 0.0000000000000000000 ) ) ;
#203 = AXIS2_PLACEMENT_3D ( 'NONE', #281, #13, #219 ) ;
#204 = CARTESIAN_POINT ( 'NONE',  ( -4.852736867747366100E-031, 0.8800000000000015600, 4.852736867747366100E-030 ) ) ;
#205 = DIRECTION ( 'NONE',  ( -2.648153673532449300E-034, 1.000000000000000000, 7.222237291452134400E-035 ) ) ;
#206 = AXIS2_PLACEMENT_3D ( 'NONE', #192, #286, #36 ) ;
#207 = LOCAL_TIME ( 14, 40, 56.00000000000000000, #174 ) ;
#208 = CYLINDRICAL_SURFACE ( 'NONE', #182, 0.6900000000000016100 ) ;
#209 = EDGE_CURVE ( 'NONE', #139, #139, #133, .T. ) ;
#210 = PERSON_AND_ORGANIZATION_ROLE ( 'design_owner' ) ;
#211 = FACE_BOUND ( 'NONE', #134, .T. ) ;
#212 = PRODUCT_DEFINITION ( 'UNKNOWN', '', #173, #29 ) ;
#213 = ORIENTED_EDGE ( 'NONE', *, *, #309, .T. ) ;
#214 = EDGE_LOOP ( 'NONE', ( #96, #291, #266, #326 ) ) ;
#215 = CALENDAR_DATE ( 2017, 16, 8 ) ;
#216 = ADVANCED_FACE ( 'NONE', ( #352 ), #365, .T. ) ;
#217 = FACE_OUTER_BOUND ( 'NONE', #28, .T. ) ;
#218 = AXIS2_PLACEMENT_3D ( 'NONE', #369, #19, #120 ) ;
#219 = DIRECTION ( 'NONE',  ( 1.000000000000000000, -2.768524295056643800E-034, 0.0000000000000000000 ) ) ;
#220 = DIRECTION ( 'NONE',  ( -1.000000000000000000, 2.768524295056643800E-034, 0.0000000000000000000 ) ) ;
#221 = DIRECTION ( 'NONE',  ( 0.0000000000000000000, -6.018531076210096000E-035, -1.000000000000000000 ) ) ;
#222 = COORDINATED_UNIVERSAL_TIME_OFFSET ( 5, 0, .BEHIND. ) ;
#223 = DIRECTION ( 'NONE',  ( -2.648153673532449300E-034, 1.000000000000000000, 7.222237291452134400E-035 ) ) ;
#224 = CIRCLE ( 'NONE', #169, 0.6900000000000016100 ) ;
#225 = ORIENTED_EDGE ( 'NONE', *, *, #20, .F. ) ;
#226 = DIRECTION ( 'NONE',  ( 2.648153673532449300E-034, -1.000000000000000000, -7.222237291452134400E-035 ) ) ;
#227 = CARTESIAN_POINT ( 'NONE',  ( 4.852736867747366100E-031, -0.3672287142747433000, 2.911642120648419600E-030 ) ) ;
#228 = CARTESIAN_POINT ( 'NONE',  ( -0.2923610781208742500, 0.8800000000000015600, -0.6250000000000033300 ) ) ;
#229 = EDGE_CURVE ( 'NONE', #282, #123, #278, .T. ) ;
#230 = CONICAL_SURFACE ( 'NONE', #231, 0.4264585000000011800, 0.02993239667170278400 ) ;
#231 = AXIS2_PLACEMENT_3D ( 'NONE', #162, #14, #221 ) ;
#232 = VERTEX_POINT ( 'NONE', #154 ) ;
#233 = CC_DESIGN_PERSON_AND_ORGANIZATION_ASSIGNMENT ( #351, #153, ( #173 ) ) ;
#234 = PRODUCT_DEFINITION_SHAPE ( 'NONE', 'NONE',  #212 ) ;
#235 = EDGE_LOOP ( 'NONE', ( #324, #88, #177, #289 ) ) ;
#236 = APPROVAL ( #113, 'UNSPECIFIED' ) ;
#237 = LOCAL_TIME ( 14, 40, 56.00000000000000000, #222 ) ;
#238 = VERTEX_POINT ( 'NONE', #367 ) ;
#239 = CYLINDRICAL_SURFACE ( 'NONE', #363, 0.3200000000000008400 ) ;
#240 = ORIENTED_EDGE ( 'NONE', *, *, #376, .F. ) ;
#241 = AXIS2_PLACEMENT_3D ( 'NONE', #101, #285, #67 ) ;
#242 = ORGANIZATION ( 'UNSPECIFIED', 'UNSPECIFIED', '' ) ;
#243 = DIRECTION ( 'NONE',  ( 0.0000000000000000000, 0.0000000000000000000, 1.000000000000000000 ) ) ;
#244 = ADVANCED_BREP_SHAPE_REPRESENTATION ( '5529005', ( #372, #15 ), #184 ) ;
#245 = ORIENTED_EDGE ( 'NONE', *, *, #359, .T. ) ;
#246 = CC_DESIGN_APPROVAL ( #129, ( #173 ) ) ;
#247 = CARTESIAN_POINT ( 'NONE',  ( 1.455821060324209800E-030, 1.010000000000002700, 1.941094747098946400E-030 ) ) ;
#248 = VECTOR ( 'NONE', #373, 39.37007874015748100 ) ;
#249 = MECHANICAL_CONTEXT ( 'NONE', #197, 'mechanical' ) ;
#250 = DIRECTION ( 'NONE',  ( 0.0000000000000000000, 0.0000000000000000000, 1.000000000000000000 ) ) ;
#251 = DIRECTION ( 'NONE',  ( 0.0000000000000000000, 0.0000000000000000000, 1.000000000000000000 ) ) ;
#252 = EDGE_LOOP ( 'NONE', ( #44 ) ) ;
#253 = SHAPE_DEFINITION_REPRESENTATION ( #234, #244 ) ;
#254 = DIRECTION ( 'NONE',  ( 0.0000000000000000000, 6.018531076210097100E-035, 1.000000000000000000 ) ) ;
#255 = LINE ( 'NONE', #125, #131 ) ;
#256 = FACE_OUTER_BOUND ( 'NONE', #321, .T. ) ;
#257 = CARTESIAN_POINT ( 'NONE',  ( 0.3515000000000008700, 0.7500000000000004400, 2.856954952360979800E-017 ) ) ;
#258 = CC_DESIGN_APPROVAL ( #236, ( #116 ) ) ;
#259 = CARTESIAN_POINT ( 'NONE',  ( -4.852736867747366100E-031, 0.8800000000000015600, 4.852736867747366100E-030 ) ) ;
#260 = VERTEX_POINT ( 'NONE', #70 ) ;
#261 = CIRCLE ( 'NONE', #300, 0.6900000000000016100 ) ;
#262 = ADVANCED_FACE ( 'NONE', ( #211, #217 ), #157, .F. ) ;
#263 = ORIENTED_EDGE ( 'NONE', *, *, #209, .T. ) ;
#264 = ADVANCED_FACE ( 'NONE', ( #66 ), #354, .T. ) ;
#265 = CIRCLE ( 'NONE', #143, 0.3950000000000010700 ) ;
#266 = ORIENTED_EDGE ( 'NONE', *, *, #342, .F. ) ;
#267 = EDGE_LOOP ( 'NONE', ( #77 ) ) ;
#268 = EDGE_CURVE ( 'NONE', #155, #260, #255, .T. ) ;
#269 = FACE_OUTER_BOUND ( 'NONE', #3, .T. ) ;
#270 = CALENDAR_DATE ( 2017, 16, 8 ) ;
#271 = ORIENTED_EDGE ( 'NONE', *, *, #376, .T. ) ;
#272 = ORIENTED_EDGE ( 'NONE', *, *, #200, .T. ) ;
#273 = ORIENTED_EDGE ( 'NONE', *, *, #146, .T. ) ;
#274 =( LENGTH_UNIT ( ) NAMED_UNIT ( * ) SI_UNIT ( $, .METRE. ) );
#275 = DATE_AND_TIME ( #270, #344 ) ;
#276 = ADVANCED_FACE ( 'NONE', ( #32, #256 ), #198, .T. ) ;
#277 = PRODUCT_RELATED_PRODUCT_CATEGORY ( 'detail', '', ( #366 ) ) ;
#278 = LINE ( 'NONE', #228, #108 ) ;
#279 = VECTOR ( 'NONE', #156, 39.37007874015748100 ) ;
#280 = DIRECTION ( 'NONE',  ( 0.0000000000000000000, 6.018531076210097100E-035, 1.000000000000000000 ) ) ;
#281 = CARTESIAN_POINT ( 'NONE',  ( -0.7378263822482457000, 1.999999999999998400, 0.6250000000000021100 ) ) ;
#282 = VERTEX_POINT ( 'NONE', #161 ) ;
#283 = EDGE_CURVE ( 'NONE', #175, #175, #112, .T. ) ;
#284 = CARTESIAN_POINT ( 'NONE',  ( -6.585180840581074200E-016, 0.0000000000000000000, 0.6250000000000008900 ) ) ;
#285 = DIRECTION ( 'NONE',  ( 2.648153673532449300E-034, -1.000000000000000000, -7.222237291452134400E-035 ) ) ;
#286 = DIRECTION ( 'NONE',  ( -2.648153673532448900E-034, 1.000000000000000000, -6.018531076210096000E-035 ) ) ;
#287 = CARTESIAN_POINT ( 'NONE',  ( 1.455821060324209800E-030, 1.010000000000002700, 1.941094747098946400E-030 ) ) ;
#288 = LINE ( 'NONE', #284, #75 ) ;
#289 = ORIENTED_EDGE ( 'NONE', *, *, #370, .F. ) ;
#290 = FACE_OUTER_BOUND ( 'NONE', #68, .T. ) ;
#291 = ORIENTED_EDGE ( 'NONE', *, *, #83, .F. ) ;
#292 = APPLICATION_PROTOCOL_DEFINITION ( 'international standard', 'config_control_design', 1994, #4 ) ;
#293 = DATE_AND_TIME ( #215, #237 ) ;
#294 = LINE ( 'NONE', #119, #279 ) ;
#295 = APPROVAL_PERSON_ORGANIZATION ( #127, #236, #377 ) ;
#296 = EDGE_LOOP ( 'NONE', ( #148 ) ) ;
#297 = DIRECTION ( 'NONE',  ( -2.648153673532449300E-034, 1.000000000000000000, 7.222237291452134400E-035 ) ) ;
#298 = LENGTH_MEASURE_WITH_UNIT ( LENGTH_MEASURE( 0.02539999999999999900 ), #274 );
#299 = DATE_TIME_ROLE ( 'creation_date' ) ;
#300 = AXIS2_PLACEMENT_3D ( 'NONE', #34, #188, #254 ) ;
#301 = LINE ( 'NONE', #63, #95 ) ;
#302 = ORIENTED_EDGE ( 'NONE', *, *, #359, .F. ) ;
#303 = DIRECTION ( 'NONE',  ( 2.648153673532449300E-034, -1.000000000000000000, -7.222237291452134400E-035 ) ) ;
#304 = CARTESIAN_POINT ( 'NONE',  ( 0.2923610781208734700, 0.0000000000000000000, -0.6250000000000032200 ) ) ;
#305 = PERSON ( 'UNSPECIFIED', 'UNSPECIFIED', 'UNSPECIFIED', ('UNSPECIFIED'), ('UNSPECIFIED'), ('UNSPECIFIED') ) ;
#306 = DIRECTION ( 'NONE',  ( 1.000000000000000000, 0.0000000000000000000, 0.0000000000000000000 ) ) ;
#307 = LINE ( 'NONE', #310, #27 ) ;
#308 = DIRECTION ( 'NONE',  ( 2.648153673532449300E-034, -1.000000000000000000, -7.222237291452134400E-035 ) ) ;
#309 = EDGE_CURVE ( 'NONE', #232, #232, #85, .T. ) ;
#310 = CARTESIAN_POINT ( 'NONE',  ( 0.2923610781208741400, 0.8800000000000015600, 0.6250000000000010000 ) ) ;
#311 = DIRECTION ( 'NONE',  ( 2.648153673532449300E-034, -1.000000000000000000, -7.222237291452134400E-035 ) ) ;
#312 = CALENDAR_DATE ( 2017, 16, 8 ) ;
#313 = PERSON_AND_ORGANIZATION ( #305, #242 ) ;
#314 = PLANE ( 'NONE',  #78 ) ;
#315 = ORIENTED_EDGE ( 'NONE', *, *, #268, .F. ) ;
#316 = DIRECTION ( 'NONE',  ( 1.912559421448202100E-068, -7.222237291452134400E-035, 1.000000000000000000 ) ) ;
#317 = CARTESIAN_POINT ( 'NONE',  ( -6.585180840581074200E-016, 0.8800000000000015600, 0.6250000000000008900 ) ) ;
#318 = ADVANCED_FACE ( 'NONE', ( #356, #350 ), #180, .F. ) ;
#319 = CLOSED_SHELL ( 'NONE', ( #264, #79, #276, #262, #9, #140, #22, #126, #195, #216, #320, #318 ) ) ;
#320 = ADVANCED_FACE ( 'NONE', ( #368 ), #364, .T. ) ;
#321 = EDGE_LOOP ( 'NONE', ( #150, #273, #271, #348 ) ) ;
#322 = DIRECTION ( 'NONE',  ( 0.0000000000000000000, 0.0000000000000000000, -1.000000000000000000 ) ) ;
#323 = EDGE_LOOP ( 'NONE', ( #353 ) ) ;
#324 = ORIENTED_EDGE ( 'NONE', *, *, #268, .T. ) ;
#325 = ORIENTED_EDGE ( 'NONE', *, *, #283, .F. ) ;
#326 = ORIENTED_EDGE ( 'NONE', *, *, #124, .T. ) ;
#327 = AXIS2_PLACEMENT_3D ( 'NONE', #92, #311, #194 ) ;
#328 = EDGE_LOOP ( 'NONE', ( #64, #245, #362, #51 ) ) ;
#329 = PERSON_AND_ORGANIZATION ( #305, #242 ) ;
#330 = DATE_TIME_ROLE ( 'classification_date' ) ;
#331 = VERTEX_POINT ( 'NONE', #357 ) ;
#332 = PERSON_AND_ORGANIZATION_ROLE ( 'creator' ) ;
#333 = FACE_OUTER_BOUND ( 'NONE', #355, .T. ) ;
#334 = ORIENTED_EDGE ( 'NONE', *, *, #57, .F. ) ;
#335 = CIRCLE ( 'NONE', #374, 0.4040024956221027200 ) ;
#336 = VERTEX_POINT ( 'NONE', #48 ) ;
#337 = PLANE ( 'NONE',  #206 ) ;
#338 = DIRECTION ( 'NONE',  ( -2.648153673532449300E-034, 1.000000000000000000, 7.222237291452134400E-035 ) ) ;
#339 = CARTESIAN_POINT ( 'NONE',  ( 4.852736867747366100E-031, -0.3672287142747433000, 2.911642120648419600E-030 ) ) ;
#340 = FACE_OUTER_BOUND ( 'NONE', #267, .T. ) ;
#341 = CARTESIAN_POINT ( 'NONE',  ( -0.2923610781208742500, 0.8800000000000015600, -0.6250000000000033300 ) ) ;
#342 = EDGE_CURVE ( 'NONE', #94, #238, #307, .T. ) ;
#343 = DIRECTION ( 'NONE',  ( 0.0000000000000000000, 0.0000000000000000000, 1.000000000000000000 ) ) ;
#344 = LOCAL_TIME ( 14, 40, 56.00000000000000000, #53 ) ;
#345 = DIRECTION ( 'NONE',  ( -2.648153673532449300E-034, 1.000000000000000000, 7.222237291452134400E-035 ) ) ;
#346 = VERTEX_POINT ( 'NONE', #304 ) ;
#347 = ORIENTED_EDGE ( 'NONE', *, *, #229, .F. ) ;
#348 = ORIENTED_EDGE ( 'NONE', *, *, #370, .T. ) ;
#349 = AXIS2_PLACEMENT_3D ( 'NONE', #287, #297, #316 ) ;
#350 = FACE_OUTER_BOUND ( 'NONE', #144, .T. ) ;
#351 = PERSON_AND_ORGANIZATION ( #305, #242 ) ;
#352 = FACE_OUTER_BOUND ( 'NONE', #235, .T. ) ;
#353 = ORIENTED_EDGE ( 'NONE', *, *, #80, .T. ) ;
#354 = CYLINDRICAL_SURFACE ( 'NONE', #327, 0.6900000000000016100 ) ;
#355 = EDGE_LOOP ( 'NONE', ( #179 ) ) ;
#356 = FACE_OUTER_BOUND ( 'NONE', #11, .T. ) ;
#357 = CARTESIAN_POINT ( 'NONE',  ( -4.852736867747366100E-031, 0.8800000000000015600, 0.5250000000000013500 ) ) ;
#358 = APPROVAL_ROLE ( '' ) ;
#359 = EDGE_CURVE ( 'NONE', #346, #282, #294, .T. ) ;
#360 = APPROVAL_PERSON_ORGANIZATION ( #166, #129, #358 ) ;
#361 = APPROVAL_ROLE ( '' ) ;
#362 = ORIENTED_EDGE ( 'NONE', *, *, #229, .T. ) ;
#363 = AXIS2_PLACEMENT_3D ( 'NONE', #339, #21, #250 ) ;
#364 = PLANE ( 'NONE',  #158 ) ;
#365 = PLANE ( 'NONE',  #203 ) ;
#366 = PRODUCT ( '5529005', '5529005', '', ( #249 ) ) ;
#367 = CARTESIAN_POINT ( 'NONE',  ( 0.2923610781208741400, 0.8800000000000015600, 0.6250000000000010000 ) ) ;
#368 = FACE_OUTER_BOUND ( 'NONE', #328, .T. ) ;
#369 = CARTESIAN_POINT ( 'NONE',  ( 0.0000000000000000000, 0.0000000000000000000, 0.0000000000000000000 ) ) ;
#370 = EDGE_CURVE ( 'NONE', #155, #238, #110, .T. ) ;
#371 = ORIENTED_EDGE ( 'NONE', *, *, #124, .F. ) ;
#372 = MANIFOLD_SOLID_BREP ( 'Fillet1', #319 ) ;
#373 = DIRECTION ( 'NONE',  ( 1.000000000000000000, -2.768524295056644300E-034, 0.0000000000000000000 ) ) ;
#374 = AXIS2_PLACEMENT_3D ( 'NONE', #98, #171, #72 ) ;
#375 = PERSON_AND_ORGANIZATION ( #305, #242 ) ;
#376 = EDGE_CURVE ( 'NONE', #123, #155, #224, .T. ) ;
#377 = APPROVAL_ROLE ( '' ) ;
#378 = DATE_AND_TIME ( #59, #207 ) ;
ENDSEC;
END-ISO-10303-21;
