ISO-10303-21;
HEADER;
FILE_DESCRIPTION (( 'STEP AP203' ),
    '1' );
FILE_NAME ('5516040.STEP',
    '2017-08-16T15:10:27',
    ( '' ),
    ( '' ),
    'SwSTEP 2.0',
    'SolidWorks 2017',
    '' );
FILE_SCHEMA (( 'CONFIG_CONTROL_DESIGN' ));
ENDSEC;

DATA;
#1 = FACE_OUTER_BOUND ( 'NONE', #216, .T. ) ;
#2 = DIRECTION ( 'NONE',  ( -1.792000320438459600E-031, 0.0000000000000000000, -1.000000000000000000 ) ) ;
#3 = APPROVAL ( #36, 'UNSPECIFIED' ) ;
#4 = CARTESIAN_POINT ( 'NONE',  ( -4.330000000000026700, 0.8967723625377538300, 2.165000000000011100 ) ) ;
#5 = EDGE_LOOP ( 'NONE', ( #176 ) ) ;
#6 = PLANE ( 'NONE',  #171 ) ;
#7 = PERSON_AND_ORGANIZATION_ROLE ( 'creator' ) ;
#8 = CYLINDRICAL_SURFACE ( 'NONE', #67, 2.031000000000005500 ) ;
#9 = ADVANCED_FACE ( 'NONE', ( #130, #100 ), #172, .F. ) ;
#10 = PERSON_AND_ORGANIZATION ( #99, #126 ) ;
#11 = CIRCLE ( 'NONE', #142, 2.165000000000009800 ) ;
#12 = CARTESIAN_POINT ( 'NONE',  ( -2.310750211070709100E-031, -0.8967723625377539400, -2.165000000000009400 ) ) ;
#13 = MECHANICAL_CONTEXT ( 'NONE', #80, 'mechanical' ) ;
#14 = LOCAL_TIME ( 11, 10, 27.00000000000000000, #49 ) ;
#15 = CARTESIAN_POINT ( 'NONE',  ( 6.008161869389532000E-031, -5.000000000000000000, 2.031000000000008100 ) ) ;
#16 = CARTESIAN_POINT ( 'NONE',  ( 4.330000000000026700, 0.8967723625377541600, 2.165000000000012500 ) ) ;
#17 = LOCAL_TIME ( 11, 10, 27.00000000000000000, #110 ) ;
#18 = CARTESIAN_POINT ( 'NONE',  ( 6.404564474263089700E-031, -5.000000000000000000, 2.165000000000008900 ) ) ;
#19 = ORIENTED_EDGE ( 'NONE', *, *, #137, .F. ) ;
#20 = DIRECTION ( 'NONE',  ( 0.0000000000000000000, 0.7071067811865476800, 0.7071067811865472400 ) ) ;
#21 = VERTEX_POINT ( 'NONE', #22 ) ;
#22 = CARTESIAN_POINT ( 'NONE',  ( -4.335458363680933600E-031, -0.8412677451797592200, -2.031000000000008600 ) ) ;
#23 = EDGE_LOOP ( 'NONE', ( #133 ) ) ;
#24 = PRODUCT ( '5516040', '5516040', '', ( #13 ) ) ;
#25 = DIRECTION ( 'NONE',  ( 1.000000000000000000, 0.0000000000000000000, 0.0000000000000000000 ) ) ;
#26 = UNCERTAINTY_MEASURE_WITH_UNIT (LENGTH_MEASURE( 1.000000000000000100E-005 ), #55, 'distance_accuracy_value', 'NONE');
#27 = CALENDAR_DATE ( 2017, 16, 8 ) ;
#28 = SHAPE_DEFINITION_REPRESENTATION ( #147, #68 ) ;
#29 = VERTEX_POINT ( 'NONE', #131 ) ;
#30 = CARTESIAN_POINT ( 'NONE',  ( -5.463695987328526400E-016, 6.123544725075501700, -1.092739197465705300E-015 ) ) ;
#31 = SECURITY_CLASSIFICATION_LEVEL ( 'unclassified' ) ;
#32 = LOCAL_TIME ( 11, 10, 27.00000000000000000, #59 ) ;
#33 = DATE_TIME_ROLE ( 'classification_date' ) ;
#34 =( GEOMETRIC_REPRESENTATION_CONTEXT ( 3 ) GLOBAL_UNCERTAINTY_ASSIGNED_CONTEXT ( ( #26 ) ) GLOBAL_UNIT_ASSIGNED_CONTEXT ( ( #55, #54, #53 ) ) REPRESENTATION_CONTEXT ( 'NONE', 'WORKASPACE' ) );
#35 = FACE_OUTER_BOUND ( 'NONE', #97, .T. ) ;
#36 = APPROVAL_STATUS ( 'not_yet_approved' ) ;
#37 = PERSON_AND_ORGANIZATION ( #99, #126 ) ;
#38 = APPROVAL_STATUS ( 'not_yet_approved' ) ;
#39 = DATE_TIME_ROLE ( 'creation_date' ) ;
#40 = CC_DESIGN_PERSON_AND_ORGANIZATION_ASSIGNMENT ( #37, #42, ( #170 ) ) ;
#41 = EDGE_LOOP ( 'NONE', ( #19 ) ) ;
#42 = PERSON_AND_ORGANIZATION_ROLE ( 'creator' ) ;
#43 = APPROVAL_DATE_TIME ( #186, #182 ) ;
#44 = CIRCLE ( 'NONE', #208, 2.165000000000005800 ) ;
#45 = APPROVAL_ROLE ( '' ) ;
#46 = PERSON_AND_ORGANIZATION ( #99, #126 ) ;
#47 = APPLICATION_PROTOCOL_DEFINITION ( 'international standard', 'config_control_design', 1994, #48 ) ;
#48 = APPLICATION_CONTEXT ( 'configuration controlled 3d designs of mechanical parts and assemblies' ) ;
#49 = COORDINATED_UNIVERSAL_TIME_OFFSET ( 5, 0, .BEHIND. ) ;
#50 = PERSON_AND_ORGANIZATION_ROLE ( 'design_owner' ) ;
#51 = CC_DESIGN_APPROVAL ( #103, ( #170 ) ) ;
#52 = DATE_AND_TIME ( #105, #209 ) ;
#53 =( NAMED_UNIT ( * ) SI_UNIT ( $, .STERADIAN. ) SOLID_ANGLE_UNIT ( ) );
#54 =( NAMED_UNIT ( * ) PLANE_ANGLE_UNIT ( ) SI_UNIT ( $, .RADIAN. ) );
#55 =( CONVERSION_BASED_UNIT ( 'INCH', #88 ) LENGTH_UNIT ( ) NAMED_UNIT ( #148 ) );
#56 = ADVANCED_FACE ( 'NONE', ( #136, #64 ), #8, .F. ) ;
#57 =( LENGTH_UNIT ( ) NAMED_UNIT ( * ) SI_UNIT ( $, .METRE. ) );
#58 = COORDINATED_UNIVERSAL_TIME_OFFSET ( 5, 0, .BEHIND. ) ;
#59 = COORDINATED_UNIVERSAL_TIME_OFFSET ( 5, 0, .BEHIND. ) ;
#60 = AXIS2_PLACEMENT_3D ( 'NONE', #30, #191, #91 ) ;
#61 = FACE_OUTER_BOUND ( 'NONE', #23, .T. ) ;
#62 = CARTESIAN_POINT ( 'NONE',  ( -4.335458363680934500E-031, -0.8412677451797592200, -2.031000000000008600 ) ) ;
#63 = DIRECTION ( 'NONE',  ( 0.0000000000000000000, 0.0000000000000000000, 1.000000000000000000 ) ) ;
#64 = FACE_OUTER_BOUND ( 'NONE', #118, .T. ) ;
#65 = AXIS2_PLACEMENT_3D ( 'NONE', #109, #123, #188 ) ;
#66 = FACE_OUTER_BOUND ( 'NONE', #211, .T. ) ;
#67 = AXIS2_PLACEMENT_3D ( 'NONE', #98, #74, #178 ) ;
#68 = ADVANCED_BREP_SHAPE_REPRESENTATION ( '5516040', ( #189, #134 ), #34 ) ;
#69 = CARTESIAN_POINT ( 'NONE',  ( -5.463695987328526400E-016, 3.535533905932745700, -3.535533905932761300 ) ) ;
#70 = CARTESIAN_POINT ( 'NONE',  ( -2.651360320154034200E-016, 0.8967723625377539400, 2.165000000000011600 ) ) ;
#71 = AXIS2_PLACEMENT_3D ( 'NONE', #112, #75, #20 ) ;
#72 = CARTESIAN_POINT ( 'NONE',  ( -5.463695987328526400E-016, 4.971667778522628600, -2.099400033342879700 ) ) ;
#73 = APPROVAL_PERSON_ORGANIZATION ( #10, #3, #144 ) ;
#74 = DIRECTION ( 'NONE',  ( -6.255420459369728000E-031, 0.7071067811865454600, -0.7071067811865496800 ) ) ;
#75 = DIRECTION ( 'NONE',  ( 6.255420459369728000E-031, -0.7071067811865454600, 0.7071067811865496800 ) ) ;
#76 = CARTESIAN_POINT ( 'NONE',  ( 4.330000000000026700, -0.8967723625377539400, -2.165000000000009400 ) ) ;
#77 = PRODUCT_DEFINITION_FORMATION_WITH_SPECIFIED_SOURCE ( 'ANY', '', #24, .NOT_KNOWN. ) ;
#78 = VERTEX_POINT ( 'NONE', #18 ) ;
#79 = COORDINATED_UNIVERSAL_TIME_OFFSET ( 5, 0, .BEHIND. ) ;
#80 = APPLICATION_CONTEXT ( 'configuration controlled 3d designs of mechanical parts and assemblies' ) ;
#81 = ORIENTED_EDGE ( 'NONE', *, *, #137, .T. ) ;
#82 = FACE_OUTER_BOUND ( 'NONE', #125, .T. ) ;
#83 = CC_DESIGN_PERSON_AND_ORGANIZATION_ASSIGNMENT ( #46, #50, ( #24 ) ) ;
#84 = CC_DESIGN_APPROVAL ( #182, ( #151 ) ) ;
#85 = PERSON_AND_ORGANIZATION ( #99, #126 ) ;
#86 = APPLICATION_PROTOCOL_DEFINITION ( 'international standard', 'config_control_design', 1994, #80 ) ;
#87 = EDGE_CURVE ( 'NONE', #21, #21, #154, .T. ) ;
#88 = LENGTH_MEASURE_WITH_UNIT ( LENGTH_MEASURE( 0.02539999999999999900 ), #57 );
#89 = FACE_BOUND ( 'NONE', #93, .T. ) ;
#90 = AXIS2_PLACEMENT_3D ( 'NONE', #153, #120, #114 ) ;
#91 = DIRECTION ( 'NONE',  ( -2.241448899652355000E-031, 0.0000000000000000000, -1.000000000000000000 ) ) ;
#92 = DESIGN_CONTEXT ( 'detailed design', #48, 'design' ) ;
#93 = EDGE_LOOP ( 'NONE', ( #207 ) ) ;
#94 = CC_DESIGN_PERSON_AND_ORGANIZATION_ASSIGNMENT ( #204, #7, ( #77 ) ) ;
#95 = CLOSED_SHELL ( 'NONE', ( #201, #183, #181, #165, #56, #9 ) ) ;
#96 = DIRECTION ( 'NONE',  ( 6.255420459369728000E-031, -0.7071067811865454600, 0.7071067811865496800 ) ) ;
#97 = EDGE_LOOP ( 'NONE', ( #124 ) ) ;
#98 = CARTESIAN_POINT ( 'NONE',  ( 0.0000000000000000000, 0.0000000000000000000, 1.092739197465705300E-015 ) ) ;
#99 = PERSON ( 'UNSPECIFIED', 'UNSPECIFIED', 'UNSPECIFIED', ('UNSPECIFIED'), ('UNSPECIFIED'), ('UNSPECIFIED') ) ;
#100 = FACE_OUTER_BOUND ( 'NONE', #180, .T. ) ;
#101 = CARTESIAN_POINT ( 'NONE',  ( 4.062000000000025100, -0.8412677451797593300, -2.031000000000009000 ) ) ;
#102 = ORIENTED_EDGE ( 'NONE', *, *, #215, .T. ) ;
#103 = APPROVAL ( #38, 'UNSPECIFIED' ) ;
#104 = CARTESIAN_POINT ( 'NONE',  ( -5.463695987328526400E-016, 5.066420087201625400, -2.004647724663882500 ) ) ;
#105 = CALENDAR_DATE ( 2017, 16, 8 ) ;
#106 = CARTESIAN_POINT ( 'NONE',  ( -4.335458363680934500E-031, -0.8412677451797592200, -2.031000000000008600 ) ) ;
#107 = CC_DESIGN_SECURITY_CLASSIFICATION ( #151, ( #77 ) ) ;
#108 = ORIENTED_EDGE ( 'NONE', *, *, #215, .F. ) ;
#109 = CARTESIAN_POINT ( 'NONE',  ( 0.0000000000000000000, 0.0000000000000000000, 1.092739197465705300E-015 ) ) ;
#110 = COORDINATED_UNIVERSAL_TIME_OFFSET ( 5, 0, .BEHIND. ) ;
#111 =( BOUNDED_CURVE ( )  B_SPLINE_CURVE ( 3, ( #12, #213, #4, #70, #16, #76, #175 ),
 .UNSPECIFIED., .T., .T. ) 
 B_SPLINE_CURVE_WITH_KNOTS ( ( 4, 3, 4 ),
 ( 0.0000000000000000000, 3.141592653589793100, 6.283185307179586200 ),
 .UNSPECIFIED. ) 
 CURVE ( )  GEOMETRIC_REPRESENTATION_ITEM ( )  RATIONAL_B_SPLINE_CURVE ( ( 1.000000000000000000, 0.3333333333333333700, 0.3333333333333333700, 1.000000000000000000, 0.3333333333333333700, 0.3333333333333333700, 1.000000000000000000 ) ) 
 REPRESENTATION_ITEM ( '' )  );
#112 = CARTESIAN_POINT ( 'NONE',  ( -5.463695987328526400E-016, 3.535533905932745700, -3.535533905932761300 ) ) ;
#113 = ORIENTED_EDGE ( 'NONE', *, *, #87, .T. ) ;
#114 = DIRECTION ( 'NONE',  ( 0.0000000000000000000, 0.7071067811865477900, 0.7071067811865473500 ) ) ;
#115 = VERTEX_POINT ( 'NONE', #104 ) ;
#116 = DIRECTION ( 'NONE',  ( 0.0000000000000000000, 0.7071067811865476800, 0.7071067811865472400 ) ) ;
#117 = LOCAL_TIME ( 11, 10, 27.00000000000000000, #58 ) ;
#118 = EDGE_LOOP ( 'NONE', ( #108 ) ) ;
#119 = DIRECTION ( 'NONE',  ( 2.958228394578781100E-031, 0.0000000000000000000, 1.000000000000000000 ) ) ;
#120 = DIRECTION ( 'NONE',  ( -6.255420459369728900E-031, 0.7071067811865473500, -0.7071067811865477900 ) ) ;
#121 = CYLINDRICAL_SURFACE ( 'NONE', #60, 2.165000000000008000 ) ;
#122 = PLANE ( 'NONE',  #90 ) ;
#123 = DIRECTION ( 'NONE',  ( -6.255420459369728000E-031, 0.7071067811865454600, -0.7071067811865496800 ) ) ;
#124 = ORIENTED_EDGE ( 'NONE', *, *, #129, .T. ) ;
#125 = EDGE_LOOP ( 'NONE', ( #199 ) ) ;
#126 = ORGANIZATION ( 'UNSPECIFIED', 'UNSPECIFIED', '' ) ;
#127 = APPROVAL_ROLE ( '' ) ;
#128 = CARTESIAN_POINT ( 'NONE',  ( 0.0000000000000000000, -5.000000000000000000, -1.092739197465705300E-015 ) ) ;
#129 = EDGE_CURVE ( 'NONE', #29, #29, #111, .T. ) ;
#130 = FACE_OUTER_BOUND ( 'NONE', #5, .T. ) ;
#131 = CARTESIAN_POINT ( 'NONE',  ( -2.310750211070709100E-031, -0.8967723625377539400, -2.165000000000009400 ) ) ;
#132 = CC_DESIGN_APPROVAL ( #3, ( #77 ) ) ;
#133 = ORIENTED_EDGE ( 'NONE', *, *, #145, .T. ) ;
#134 = AXIS2_PLACEMENT_3D ( 'NONE', #164, #63, #25 ) ;
#135 = PERSON_AND_ORGANIZATION_ROLE ( 'classification_officer' ) ;
#136 = FACE_OUTER_BOUND ( 'NONE', #190, .T. ) ;
#137 = EDGE_CURVE ( 'NONE', #115, #115, #44, .T. ) ;
#138 = APPROVAL_DATE_TIME ( #184, #3 ) ;
#139 = PERSON_AND_ORGANIZATION_ROLE ( 'design_supplier' ) ;
#140 = CYLINDRICAL_SURFACE ( 'NONE', #65, 2.165000000000005800 ) ;
#141 = APPROVAL_PERSON_ORGANIZATION ( #192, #103, #45 ) ;
#142 = AXIS2_PLACEMENT_3D ( 'NONE', #157, #163, #119 ) ;
#143 = CARTESIAN_POINT ( 'NONE',  ( -2.487257649068286000E-016, 0.8412677451797592200, 2.031000000000010800 ) ) ;
#144 = APPROVAL_ROLE ( '' ) ;
#145 = EDGE_CURVE ( 'NONE', #78, #78, #11, .T. ) ;
#146 = FACE_BOUND ( 'NONE', #167, .T. ) ;
#147 = PRODUCT_DEFINITION_SHAPE ( 'NONE', 'NONE',  #170 ) ;
#148 = DIMENSIONAL_EXPONENTS ( 1.000000000000000000, 0.0000000000000000000, 0.0000000000000000000, 0.0000000000000000000, 0.0000000000000000000, 0.0000000000000000000, 0.0000000000000000000 ) ;
#149 = AXIS2_PLACEMENT_3D ( 'NONE', #128, #194, #177 ) ;
#150 = CARTESIAN_POINT ( 'NONE',  ( 0.0000000000000000000, -5.000000000000000000, -1.092739197465705300E-015 ) ) ;
#151 = SECURITY_CLASSIFICATION ( '', '', #31 ) ;
#152 = VERTEX_POINT ( 'NONE', #72 ) ;
#153 = CARTESIAN_POINT ( 'NONE',  ( -5.463695987328526400E-016, 3.535533905932745700, -3.535533905932761300 ) ) ;
#154 =( BOUNDED_CURVE ( )  B_SPLINE_CURVE ( 3, ( #106, #156, #168, #143, #212, #101, #62 ),
 .UNSPECIFIED., .T., .T. ) 
 B_SPLINE_CURVE_WITH_KNOTS ( ( 4, 3, 4 ),
 ( 5.305386709030463100E-047, 3.141592653589793100, 6.283185307179586200 ),
 .UNSPECIFIED. ) 
 CURVE ( )  GEOMETRIC_REPRESENTATION_ITEM ( )  RATIONAL_B_SPLINE_CURVE ( ( 1.000000000000000000, 0.3333333333333333700, 0.3333333333333333700, 1.000000000000000000, 0.3333333333333333700, 0.3333333333333333700, 1.000000000000000000 ) ) 
 REPRESENTATION_ITEM ( '' )  );
#155 = APPROVAL_PERSON_ORGANIZATION ( #174, #182, #127 ) ;
#156 = CARTESIAN_POINT ( 'NONE',  ( -4.062000000000025100, -0.8412677451797593300, -2.031000000000009000 ) ) ;
#157 = CARTESIAN_POINT ( 'NONE',  ( 0.0000000000000000000, -5.000000000000000000, -1.092739197465705300E-015 ) ) ;
#158 = PERSON_AND_ORGANIZATION ( #99, #126 ) ;
#159 = APPROVAL_STATUS ( 'not_yet_approved' ) ;
#160 = DIRECTION ( 'NONE',  ( -1.312025888347557900E-061, 1.000000000000000000, -2.217587206505020600E-031 ) ) ;
#161 = VERTEX_POINT ( 'NONE', #15 ) ;
#162 = CIRCLE ( 'NONE', #71, 2.031000000000005500 ) ;
#163 = DIRECTION ( 'NONE',  ( 0.0000000000000000000, 1.000000000000000000, 2.217587206505019700E-031 ) ) ;
#164 = CARTESIAN_POINT ( 'NONE',  ( 0.0000000000000000000, 0.0000000000000000000, 0.0000000000000000000 ) ) ;
#165 = ADVANCED_FACE ( 'NONE', ( #89, #1 ), #6, .F. ) ;
#166 = DIRECTION ( 'NONE',  ( 2.958228394578781100E-031, 2.217587206505020600E-031, 1.000000000000000000 ) ) ;
#167 = EDGE_LOOP ( 'NONE', ( #102 ) ) ;
#168 = CARTESIAN_POINT ( 'NONE',  ( -4.062000000000025100, 0.8412677451797590000, 2.031000000000010800 ) ) ;
#169 = EDGE_CURVE ( 'NONE', #161, #161, #205, .T. ) ;
#170 = PRODUCT_DEFINITION ( 'UNKNOWN', '', #77, #92 ) ;
#171 = AXIS2_PLACEMENT_3D ( 'NONE', #150, #160, #166 ) ;
#172 = CYLINDRICAL_SURFACE ( 'NONE', #173, 2.031000000000007200 ) ;
#173 = AXIS2_PLACEMENT_3D ( 'NONE', #195, #185, #2 ) ;
#174 = PERSON_AND_ORGANIZATION ( #99, #126 ) ;
#175 = CARTESIAN_POINT ( 'NONE',  ( -2.310750211070709100E-031, -0.8967723625377539400, -2.165000000000009400 ) ) ;
#176 = ORIENTED_EDGE ( 'NONE', *, *, #169, .F. ) ;
#177 = DIRECTION ( 'NONE',  ( 2.958228394578780700E-031, 0.0000000000000000000, 1.000000000000000000 ) ) ;
#178 = DIRECTION ( 'NONE',  ( 0.0000000000000000000, 0.7071067811865476800, 0.7071067811865472400 ) ) ;
#179 = CALENDAR_DATE ( 2017, 16, 8 ) ;
#180 = EDGE_LOOP ( 'NONE', ( #113 ) ) ;
#181 = ADVANCED_FACE ( 'NONE', ( #61, #82 ), #121, .T. ) ;
#182 = APPROVAL ( #159, 'UNSPECIFIED' ) ;
#183 = ADVANCED_FACE ( 'NONE', ( #35, #66 ), #140, .T. ) ;
#184 = DATE_AND_TIME ( #179, #32 ) ;
#185 = DIRECTION ( 'NONE',  ( 0.0000000000000000000, -1.000000000000000000, -1.110223024625158800E-016 ) ) ;
#186 = DATE_AND_TIME ( #197, #14 ) ;
#187 = FACE_OUTER_BOUND ( 'NONE', #41, .T. ) ;
#188 = DIRECTION ( 'NONE',  ( 0.0000000000000000000, 0.7071067811865477900, 0.7071067811865472400 ) ) ;
#189 = MANIFOLD_SOLID_BREP ( 'Sweep-Thin1', #95 ) ;
#190 = EDGE_LOOP ( 'NONE', ( #202 ) ) ;
#191 = DIRECTION ( 'NONE',  ( 0.0000000000000000000, -1.000000000000000000, -1.110223024625158800E-016 ) ) ;
#192 = PERSON_AND_ORGANIZATION ( #99, #126 ) ;
#193 = ORIENTED_EDGE ( 'NONE', *, *, #145, .F. ) ;
#194 = DIRECTION ( 'NONE',  ( 0.0000000000000000000, 1.000000000000000000, 2.217587206505019700E-031 ) ) ;
#195 = CARTESIAN_POINT ( 'NONE',  ( -5.463695987328526400E-016, 6.123544725075501700, -1.092739197465705300E-015 ) ) ;
#196 = CC_DESIGN_PERSON_AND_ORGANIZATION_ASSIGNMENT ( #85, #139, ( #77 ) ) ;
#197 = CALENDAR_DATE ( 2017, 16, 8 ) ;
#198 = CC_DESIGN_DATE_AND_TIME_ASSIGNMENT ( #210, #33, ( #151 ) ) ;
#199 = ORIENTED_EDGE ( 'NONE', *, *, #129, .F. ) ;
#200 = PRODUCT_RELATED_PRODUCT_CATEGORY ( 'detail', '', ( #24 ) ) ;
#201 = ADVANCED_FACE ( 'NONE', ( #187, #146 ), #122, .T. ) ;
#202 = ORIENTED_EDGE ( 'NONE', *, *, #87, .F. ) ;
#203 = CC_DESIGN_PERSON_AND_ORGANIZATION_ASSIGNMENT ( #158, #135, ( #151 ) ) ;
#204 = PERSON_AND_ORGANIZATION ( #99, #126 ) ;
#205 = CIRCLE ( 'NONE', #149, 2.031000000000009500 ) ;
#206 = CALENDAR_DATE ( 2017, 16, 8 ) ;
#207 = ORIENTED_EDGE ( 'NONE', *, *, #169, .T. ) ;
#208 = AXIS2_PLACEMENT_3D ( 'NONE', #69, #96, #116 ) ;
#209 = LOCAL_TIME ( 11, 10, 27.00000000000000000, #79 ) ;
#210 = DATE_AND_TIME ( #27, #117 ) ;
#211 = EDGE_LOOP ( 'NONE', ( #81 ) ) ;
#212 = CARTESIAN_POINT ( 'NONE',  ( 4.062000000000025100, 0.8412677451797594400, 2.031000000000011700 ) ) ;
#213 = CARTESIAN_POINT ( 'NONE',  ( -4.330000000000026700, -0.8967723625377539400, -2.165000000000009400 ) ) ;
#214 = DATE_AND_TIME ( #206, #17 ) ;
#215 = EDGE_CURVE ( 'NONE', #152, #152, #162, .T. ) ;
#216 = EDGE_LOOP ( 'NONE', ( #193 ) ) ;
#217 = APPROVAL_DATE_TIME ( #52, #103 ) ;
#218 = CC_DESIGN_DATE_AND_TIME_ASSIGNMENT ( #214, #39, ( #170 ) ) ;
ENDSEC;
END-ISO-10303-21;
