ISO-10303-21;
HEADER;
FILE_DESCRIPTION (( 'STEP AP203' ),
    '1' );
FILE_NAME ('581136100.STEP',
    '2017-07-31T14:09:58',
    ( '' ),
    ( '' ),
    'SwSTEP 2.0',
    'SolidWorks 2017',
    '' );
FILE_SCHEMA (( 'CONFIG_CONTROL_DESIGN' ));
ENDSEC;

DATA;
#1 = CC_DESIGN_SECURITY_CLASSIFICATION ( #222, ( #243 ) ) ;
#2 = VERTEX_POINT ( 'NONE', #106 ) ;
#3 = FACE_OUTER_BOUND ( 'NONE', #24, .T. ) ;
#4 = DIRECTION ( 'NONE',  ( 0.0000000000000000000, 0.0000000000000000000, -1.000000000000000000 ) ) ;
#5 = COORDINATED_UNIVERSAL_TIME_OFFSET ( 5, 0, .BEHIND. ) ;
#6 = DIRECTION ( 'NONE',  ( -1.000000000000000000, -0.0000000000000000000, 0.0000000000000000000 ) ) ;
#7 = AXIS2_PLACEMENT_3D ( 'NONE', #139, #98, #69 ) ;
#8 = PERSON_AND_ORGANIZATION ( #71, #16 ) ;
#9 = PERSON_AND_ORGANIZATION ( #71, #16 ) ;
#10 = COORDINATED_UNIVERSAL_TIME_OFFSET ( 5, 0, .BEHIND. ) ;
#11 = ADVANCED_FACE ( 'NONE', ( #151, #63 ), #167, .T. ) ;
#12 = CARTESIAN_POINT ( 'NONE',  ( -3.818897637795276400, 0.0000000000000000000, 0.0000000000000000000 ) ) ;
#13 = LOCAL_TIME ( 10, 9, 58.00000000000000000, #10 ) ;
#14 = APPROVAL_PERSON_ORGANIZATION ( #100, #150, #165 ) ;
#15 = ORIENTED_EDGE ( 'NONE', *, *, #184, .F. ) ;
#16 = ORGANIZATION ( 'UNSPECIFIED', 'UNSPECIFIED', '' ) ;
#17 = APPROVAL_DATE_TIME ( #198, #245 ) ;
#18 = DIRECTION ( 'NONE',  ( 1.000000000000000000, 0.0000000000000000000, 0.0000000000000000000 ) ) ;
#19 = CLOSED_SHELL ( 'NONE', ( #185, #236, #22, #32, #53, #11, #147, #70 ) ) ;
#20 = COORDINATED_UNIVERSAL_TIME_OFFSET ( 5, 0, .BEHIND. ) ;
#21 = CIRCLE ( 'NONE', #7, 4.564494805464464700 ) ;
#22 = ADVANCED_FACE ( 'NONE', ( #54, #250 ), #211, .F. ) ;
#23 = CALENDAR_DATE ( 2017, 31, 7 ) ;
#24 = EDGE_LOOP ( 'NONE', ( #133 ) ) ;
#25 = CC_DESIGN_APPROVAL ( #150, ( #231 ) ) ;
#26 = ORIENTED_EDGE ( 'NONE', *, *, #155, .F. ) ;
#27 = DIRECTION ( 'NONE',  ( 0.0000000000000000000, 0.0000000000000000000, 1.000000000000000000 ) ) ;
#28 = ORIENTED_EDGE ( 'NONE', *, *, #78, .T. ) ;
#29 = CARTESIAN_POINT ( 'NONE',  ( -3.818897637795276800, 0.0000000000000000000, 5.610236220472441600 ) ) ;
#30 = CARTESIAN_POINT ( 'NONE',  ( 0.0000000000000000000, 0.0000000000000000000, 0.0000000000000000000 ) ) ;
#31 = EDGE_CURVE ( 'NONE', #212, #212, #219, .T. ) ;
#32 = ADVANCED_FACE ( 'NONE', ( #168, #142 ), #131, .T. ) ;
#33 = EDGE_CURVE ( 'NONE', #42, #42, #235, .T. ) ;
#34 = FACE_OUTER_BOUND ( 'NONE', #214, .T. ) ;
#35 = EDGE_LOOP ( 'NONE', ( #130 ) ) ;
#36 = CARTESIAN_POINT ( 'NONE',  ( -3.818897637795276800, 0.0000000000000000000, 0.0000000000000000000 ) ) ;
#37 = DATE_AND_TIME ( #205, #154 ) ;
#38 = ORIENTED_EDGE ( 'NONE', *, *, #128, .T. ) ;
#39 = AXIS2_PLACEMENT_3D ( 'NONE', #206, #174, #224 ) ;
#40 = DIRECTION ( 'NONE',  ( -1.000000000000000000, 0.0000000000000000000, 0.0000000000000000000 ) ) ;
#41 =( NAMED_UNIT ( * ) SI_UNIT ( $, .STERADIAN. ) SOLID_ANGLE_UNIT ( ) );
#42 = VERTEX_POINT ( 'NONE', #120 ) ;
#43 = PERSON_AND_ORGANIZATION ( #71, #16 ) ;
#44 = CIRCLE ( 'NONE', #89, 6.299212598425197200 ) ;
#45 = ORIENTED_EDGE ( 'NONE', *, *, #31, .T. ) ;
#46 = CARTESIAN_POINT ( 'NONE',  ( -5.196850393700787900, 0.0000000000000000000, 0.0000000000000000000 ) ) ;
#47 = DATE_TIME_ROLE ( 'creation_date' ) ;
#48 = DIRECTION ( 'NONE',  ( -1.000000000000000000, -0.0000000000000000000, -0.0000000000000000000 ) ) ;
#49 = DESIGN_CONTEXT ( 'detailed design', #204, 'design' ) ;
#50 = APPROVAL_STATUS ( 'not_yet_approved' ) ;
#51 = LOCAL_TIME ( 10, 9, 58.00000000000000000, #157 ) ;
#52 = PERSON_AND_ORGANIZATION_ROLE ( 'design_owner' ) ;
#53 = ADVANCED_FACE ( 'NONE', ( #186, #76 ), #145, .T. ) ;
#54 = FACE_OUTER_BOUND ( 'NONE', #178, .T. ) ;
#55 = DIRECTION ( 'NONE',  ( 1.000000000000000000, 0.0000000000000000000, 0.0000000000000000000 ) ) ;
#56 = DIRECTION ( 'NONE',  ( -1.000000000000000000, 0.0000000000000000000, 0.0000000000000000000 ) ) ;
#57 = DIRECTION ( 'NONE',  ( 0.0000000000000000000, 0.0000000000000000000, 1.000000000000000000 ) ) ;
#58 = DATE_AND_TIME ( #108, #136 ) ;
#59 = DIRECTION ( 'NONE',  ( 1.000000000000000000, 0.0000000000000000000, 0.0000000000000000000 ) ) ;
#60 = UNCERTAINTY_MEASURE_WITH_UNIT (LENGTH_MEASURE( 1.000000000000000100E-005 ), #213, 'distance_accuracy_value', 'NONE');
#61 = PERSON_AND_ORGANIZATION ( #71, #16 ) ;
#62 = FACE_OUTER_BOUND ( 'NONE', #137, .T. ) ;
#63 = FACE_BOUND ( 'NONE', #143, .T. ) ;
#64 = CALENDAR_DATE ( 2017, 31, 7 ) ;
#65 = CARTESIAN_POINT ( 'NONE',  ( -4.507874015748031500, 0.0000000000000000000, 0.0000000000000000000 ) ) ;
#66 = DIRECTION ( 'NONE',  ( 0.0000000000000000000, 0.0000000000000000000, 1.000000000000000000 ) ) ;
#67 = EDGE_LOOP ( 'NONE', ( #45 ) ) ;
#68 = DIRECTION ( 'NONE',  ( 0.0000000000000000000, 0.0000000000000000000, -1.000000000000000000 ) ) ;
#69 = DIRECTION ( 'NONE',  ( 0.0000000000000000000, 0.0000000000000000000, 1.000000000000000000 ) ) ;
#70 = ADVANCED_FACE ( 'NONE', ( #138, #188 ), #246, .F. ) ;
#71 = PERSON ( 'UNSPECIFIED', 'UNSPECIFIED', 'UNSPECIFIED', ('UNSPECIFIED'), ('UNSPECIFIED'), ('UNSPECIFIED') ) ;
#72 = CIRCLE ( 'NONE', #196, 6.299212598425197200 ) ;
#73 = VERTEX_POINT ( 'NONE', #247 ) ;
#74 = DIRECTION ( 'NONE',  ( -1.000000000000000000, -0.0000000000000000000, -0.0000000000000000000 ) ) ;
#75 = DIRECTION ( 'NONE',  ( 0.0000000000000000000, 0.0000000000000000000, -1.000000000000000000 ) ) ;
#76 = FACE_OUTER_BOUND ( 'NONE', #67, .T. ) ;
#77 = PERSON_AND_ORGANIZATION ( #71, #16 ) ;
#78 = EDGE_CURVE ( 'NONE', #83, #83, #171, .T. ) ;
#79 = CIRCLE ( 'NONE', #115, 4.921259842519685200 ) ;
#80 =( LENGTH_UNIT ( ) NAMED_UNIT ( * ) SI_UNIT ( $, .METRE. ) );
#81 = CARTESIAN_POINT ( 'NONE',  ( -4.266850393700778500, 0.0000000000000000000, 0.0000000000000000000 ) ) ;
#82 = PRODUCT_RELATED_PRODUCT_CATEGORY ( 'detail', '', ( #92 ) ) ;
#83 = VERTEX_POINT ( 'NONE', #29 ) ;
#84 = DIRECTION ( 'NONE',  ( -1.110223024625156500E-016, 1.000000000000000000, -2.449212707644750600E-016 ) ) ;
#85 = CC_DESIGN_PERSON_AND_ORGANIZATION_ASSIGNMENT ( #8, #97, ( #231 ) ) ;
#86 = DIRECTION ( 'NONE',  ( 1.000000000000000000, 0.0000000000000000000, 0.0000000000000000000 ) ) ;
#87 = ORIENTED_EDGE ( 'NONE', *, *, #128, .F. ) ;
#88 = CARTESIAN_POINT ( 'NONE',  ( -3.818897637795275900, 0.0000000000000000000, 0.0000000000000000000 ) ) ;
#89 = AXIS2_PLACEMENT_3D ( 'NONE', #156, #74, #4 ) ;
#90 = AXIS2_PLACEMENT_3D ( 'NONE', #166, #40, #57 ) ;
#91 = CALENDAR_DATE ( 2017, 31, 7 ) ;
#92 = PRODUCT ( '581136100', '581136100', '', ( #173 ) ) ;
#93 = CC_DESIGN_PERSON_AND_ORGANIZATION_ASSIGNMENT ( #43, #52, ( #92 ) ) ;
#94 = DIRECTION ( 'NONE',  ( 0.0000000000000000000, 0.0000000000000000000, 1.000000000000000000 ) ) ;
#95 = VERTEX_POINT ( 'NONE', #164 ) ;
#96 = LOCAL_TIME ( 10, 9, 58.00000000000000000, #5 ) ;
#97 = PERSON_AND_ORGANIZATION_ROLE ( 'creator' ) ;
#98 = DIRECTION ( 'NONE',  ( 1.000000000000000000, -0.0000000000000000000, -0.0000000000000000000 ) ) ;
#99 = AXIS2_PLACEMENT_3D ( 'NONE', #193, #55, #152 ) ;
#100 = PERSON_AND_ORGANIZATION ( #71, #16 ) ;
#101 = APPROVAL_DATE_TIME ( #58, #150 ) ;
#102 = APPLICATION_PROTOCOL_DEFINITION ( 'international standard', 'config_control_design', 1994, #204 ) ;
#103 = CC_DESIGN_APPROVAL ( #245, ( #243 ) ) ;
#104 = CC_DESIGN_DATE_AND_TIME_ASSIGNMENT ( #180, #251, ( #222 ) ) ;
#105 = PERSON_AND_ORGANIZATION ( #71, #16 ) ;
#106 = CARTESIAN_POINT ( 'NONE',  ( -5.196850393700787900, 0.0000000000000000000, 4.564494805464464700 ) ) ;
#107 = AXIS2_PLACEMENT_3D ( 'NONE', #134, #59, #68 ) ;
#108 = CALENDAR_DATE ( 2017, 31, 7 ) ;
#109 = AXIS2_PLACEMENT_3D ( 'NONE', #36, #6, #162 ) ;
#110 = CARTESIAN_POINT ( 'NONE',  ( 0.0000000000000000000, 0.0000000000000000000, -4.027559055118110200 ) ) ;
#111 = DIRECTION ( 'NONE',  ( 0.0000000000000000000, 0.0000000000000000000, -1.000000000000000000 ) ) ;
#112 = CARTESIAN_POINT ( 'NONE',  ( 0.0000000000000000000, 0.0000000000000000000, 0.0000000000000000000 ) ) ;
#113 = DIRECTION ( 'NONE',  ( -1.000000000000000000, -0.0000000000000000000, 0.0000000000000000000 ) ) ;
#114 = COORDINATED_UNIVERSAL_TIME_OFFSET ( 5, 0, .BEHIND. ) ;
#115 = AXIS2_PLACEMENT_3D ( 'NONE', #183, #56, #84 ) ;
#116 =( GEOMETRIC_REPRESENTATION_CONTEXT ( 3 ) GLOBAL_UNCERTAINTY_ASSIGNED_CONTEXT ( ( #60 ) ) GLOBAL_UNIT_ASSIGNED_CONTEXT ( ( #213, #195, #41 ) ) REPRESENTATION_CONTEXT ( 'NONE', 'WORKASPACE' ) );
#117 = FACE_OUTER_BOUND ( 'NONE', #176, .T. ) ;
#118 = PRODUCT_DEFINITION_SHAPE ( 'NONE', 'NONE',  #231 ) ;
#119 = CYLINDRICAL_SURFACE ( 'NONE', #124, 6.299212598425197200 ) ;
#120 = CARTESIAN_POINT ( 'NONE',  ( -4.266850393700778500, 0.0000000000000000000, 4.027559055118110200 ) ) ;
#121 = VERTEX_POINT ( 'NONE', #199 ) ;
#122 = EDGE_LOOP ( 'NONE', ( #149 ) ) ;
#123 = ORIENTED_EDGE ( 'NONE', *, *, #184, .T. ) ;
#124 = AXIS2_PLACEMENT_3D ( 'NONE', #65, #86, #197 ) ;
#125 = APPROVAL_STATUS ( 'not_yet_approved' ) ;
#126 = PERSON_AND_ORGANIZATION ( #71, #16 ) ;
#127 = ORIENTED_EDGE ( 'NONE', *, *, #33, .F. ) ;
#128 = EDGE_CURVE ( 'NONE', #175, #175, #207, .T. ) ;
#129 = SECURITY_CLASSIFICATION_LEVEL ( 'unclassified' ) ;
#130 = ORIENTED_EDGE ( 'NONE', *, *, #78, .F. ) ;
#131 = PLANE ( 'NONE',  #107 ) ;
#132 = MANIFOLD_SOLID_BREP ( '1', #19 ) ;
#133 = ORIENTED_EDGE ( 'NONE', *, *, #208, .F. ) ;
#134 = CARTESIAN_POINT ( 'NONE',  ( -3.818897637795275900, 5.954724409448818500, -1.458438669414444900E-015 ) ) ;
#135 = DIMENSIONAL_EXPONENTS ( 1.000000000000000000, 0.0000000000000000000, 0.0000000000000000000, 0.0000000000000000000, 0.0000000000000000000, 0.0000000000000000000, 0.0000000000000000000 ) ;
#136 = LOCAL_TIME ( 10, 9, 58.00000000000000000, #114 ) ;
#137 = EDGE_LOOP ( 'NONE', ( #232 ) ) ;
#138 = FACE_BOUND ( 'NONE', #252, .T. ) ;
#139 = CARTESIAN_POINT ( 'NONE',  ( -5.196850393700787900, 0.0000000000000000000, 0.0000000000000000000 ) ) ;
#140 = AXIS2_PLACEMENT_3D ( 'NONE', #12, #113, #94 ) ;
#141 = LENGTH_MEASURE_WITH_UNIT ( LENGTH_MEASURE( 0.02539999999999999900 ), #80 );
#142 = FACE_OUTER_BOUND ( 'NONE', #220, .T. ) ;
#143 = EDGE_LOOP ( 'NONE', ( #123 ) ) ;
#144 = AXIS2_PLACEMENT_3D ( 'NONE', #46, #146, #209 ) ;
#145 = PLANE ( 'NONE',  #148 ) ;
#146 = DIRECTION ( 'NONE',  ( -1.000000000000000000, -0.0000000000000000000, -0.0000000000000000000 ) ) ;
#147 = ADVANCED_FACE ( 'NONE', ( #34, #62 ), #223, .T. ) ;
#148 = AXIS2_PLACEMENT_3D ( 'NONE', #242, #18, #249 ) ;
#149 = ORIENTED_EDGE ( 'NONE', *, *, #155, .T. ) ;
#150 = APPROVAL ( #125, 'UNSPECIFIED' ) ;
#151 = FACE_OUTER_BOUND ( 'NONE', #35, .T. ) ;
#152 = DIRECTION ( 'NONE',  ( 0.0000000000000000000, 0.0000000000000000000, -1.000000000000000000 ) ) ;
#153 = APPROVAL_ROLE ( '' ) ;
#154 = LOCAL_TIME ( 10, 9, 58.00000000000000000, #20 ) ;
#155 = EDGE_CURVE ( 'NONE', #121, #121, #72, .T. ) ;
#156 = CARTESIAN_POINT ( 'NONE',  ( -5.196850393700787900, 0.0000000000000000000, 0.0000000000000000000 ) ) ;
#157 = COORDINATED_UNIVERSAL_TIME_OFFSET ( 5, 0, .BEHIND. ) ;
#158 = DIRECTION ( 'NONE',  ( 0.0000000000000000000, 0.0000000000000000000, -1.000000000000000000 ) ) ;
#159 = EDGE_CURVE ( 'NONE', #2, #2, #21, .T. ) ;
#160 = PERSON_AND_ORGANIZATION_ROLE ( 'creator' ) ;
#161 = AXIS2_PLACEMENT_3D ( 'NONE', #81, #48, #66 ) ;
#162 = DIRECTION ( 'NONE',  ( 0.0000000000000000000, 0.0000000000000000000, 1.000000000000000000 ) ) ;
#163 = APPROVAL_ROLE ( '' ) ;
#164 = CARTESIAN_POINT ( 'NONE',  ( -2.283464566929134200, 4.921259842519685200, -1.205321214392101600E-015 ) ) ;
#165 = APPROVAL_ROLE ( '' ) ;
#166 = CARTESIAN_POINT ( 'NONE',  ( -5.196850393700787900, 5.163385826771654600, -1.264623018140196800E-015 ) ) ;
#167 = CONICAL_SURFACE ( 'NONE', #140, 5.610236220472441600, 0.4217872598708172200 ) ;
#168 = FACE_BOUND ( 'NONE', #248, .T. ) ;
#169 = PERSON_AND_ORGANIZATION_ROLE ( 'design_supplier' ) ;
#170 = FACE_BOUND ( 'NONE', #190, .T. ) ;
#171 = CIRCLE ( 'NONE', #109, 5.610236220472441600 ) ;
#172 = ADVANCED_BREP_SHAPE_REPRESENTATION ( '581136100', ( #132, #194 ), #116 ) ;
#173 = MECHANICAL_CONTEXT ( 'NONE', #216, 'mechanical' ) ;
#174 = DIRECTION ( 'NONE',  ( 1.000000000000000000, 0.0000000000000000000, 0.0000000000000000000 ) ) ;
#175 = VERTEX_POINT ( 'NONE', #110 ) ;
#176 = EDGE_LOOP ( 'NONE', ( #227 ) ) ;
#177 = CC_DESIGN_APPROVAL ( #225, ( #222 ) ) ;
#178 = EDGE_LOOP ( 'NONE', ( #221 ) ) ;
#179 = APPROVAL_PERSON_ORGANIZATION ( #126, #245, #163 ) ;
#180 = DATE_AND_TIME ( #64, #51 ) ;
#181 = APPROVAL_PERSON_ORGANIZATION ( #61, #225, #153 ) ;
#182 = PLANE ( 'NONE',  #90 ) ;
#183 = CARTESIAN_POINT ( 'NONE',  ( -2.283464566929133800, 0.0000000000000000000, 0.0000000000000000000 ) ) ;
#184 = EDGE_CURVE ( 'NONE', #95, #95, #79, .T. ) ;
#185 = ADVANCED_FACE ( 'NONE', ( #170, #117 ), #182, .T. ) ;
#186 = FACE_BOUND ( 'NONE', #215, .T. ) ;
#187 = CC_DESIGN_PERSON_AND_ORGANIZATION_ASSIGNMENT ( #9, #160, ( #243 ) ) ;
#188 = FACE_OUTER_BOUND ( 'NONE', #226, .T. ) ;
#189 = CARTESIAN_POINT ( 'NONE',  ( 0.0000000000000000000, 0.0000000000000000000, 0.0000000000000000000 ) ) ;
#190 = EDGE_LOOP ( 'NONE', ( #234 ) ) ;
#191 = DIRECTION ( 'NONE',  ( 1.000000000000000000, 0.0000000000000000000, 0.0000000000000000000 ) ) ;
#192 = FACE_OUTER_BOUND ( 'NONE', #122, .T. ) ;
#193 = CARTESIAN_POINT ( 'NONE',  ( -2.598425196850394000, 0.0000000000000000000, 0.0000000000000000000 ) ) ;
#194 = AXIS2_PLACEMENT_3D ( 'NONE', #189, #27, #239 ) ;
#195 =( NAMED_UNIT ( * ) PLANE_ANGLE_UNIT ( ) SI_UNIT ( $, .RADIAN. ) );
#196 = AXIS2_PLACEMENT_3D ( 'NONE', #88, #201, #158 ) ;
#197 = DIRECTION ( 'NONE',  ( 0.0000000000000000000, 0.0000000000000000000, -1.000000000000000000 ) ) ;
#198 = DATE_AND_TIME ( #91, #96 ) ;
#199 = CARTESIAN_POINT ( 'NONE',  ( -3.818897637795275900, 0.0000000000000000000, -6.299212598425197200 ) ) ;
#200 = PERSON_AND_ORGANIZATION_ROLE ( 'classification_officer' ) ;
#201 = DIRECTION ( 'NONE',  ( -1.000000000000000000, -0.0000000000000000000, -0.0000000000000000000 ) ) ;
#202 = CARTESIAN_POINT ( 'NONE',  ( 0.0000000000000000000, 0.0000000000000000000, -4.921259842519685200 ) ) ;
#203 = CC_DESIGN_PERSON_AND_ORGANIZATION_ASSIGNMENT ( #77, #169, ( #243 ) ) ;
#204 = APPLICATION_CONTEXT ( 'configuration controlled 3d designs of mechanical parts and assemblies' ) ;
#205 = CALENDAR_DATE ( 2017, 31, 7 ) ;
#206 = CARTESIAN_POINT ( 'NONE',  ( -1.141732283464567100, 0.0000000000000000000, 0.0000000000000000000 ) ) ;
#207 = CIRCLE ( 'NONE', #217, 4.027559055118110200 ) ;
#208 = EDGE_CURVE ( 'NONE', #73, #73, #44, .T. ) ;
#209 = DIRECTION ( 'NONE',  ( 0.0000000000000000000, 0.0000000000000000000, 1.000000000000000000 ) ) ;
#210 = CC_DESIGN_PERSON_AND_ORGANIZATION_ASSIGNMENT ( #105, #200, ( #222 ) ) ;
#211 = CYLINDRICAL_SURFACE ( 'NONE', #99, 4.027559055118110200 ) ;
#212 = VERTEX_POINT ( 'NONE', #202 ) ;
#213 =( CONVERSION_BASED_UNIT ( 'INCH', #141 ) LENGTH_UNIT ( ) NAMED_UNIT ( #135 ) );
#214 = EDGE_LOOP ( 'NONE', ( #15 ) ) ;
#215 = EDGE_LOOP ( 'NONE', ( #38 ) ) ;
#216 = APPLICATION_CONTEXT ( 'configuration controlled 3d designs of mechanical parts and assemblies' ) ;
#217 = AXIS2_PLACEMENT_3D ( 'NONE', #112, #218, #111 ) ;
#218 = DIRECTION ( 'NONE',  ( -1.000000000000000000, -0.0000000000000000000, -0.0000000000000000000 ) ) ;
#219 = CIRCLE ( 'NONE', #229, 4.921259842519685200 ) ;
#220 = EDGE_LOOP ( 'NONE', ( #26 ) ) ;
#221 = ORIENTED_EDGE ( 'NONE', *, *, #33, .T. ) ;
#222 = SECURITY_CLASSIFICATION ( '', '', #129 ) ;
#223 = CYLINDRICAL_SURFACE ( 'NONE', #39, 4.921259842519685200 ) ;
#224 = DIRECTION ( 'NONE',  ( 0.0000000000000000000, 0.0000000000000000000, -1.000000000000000000 ) ) ;
#225 = APPROVAL ( #240, 'UNSPECIFIED' ) ;
#226 = EDGE_LOOP ( 'NONE', ( #228 ) ) ;
#227 = ORIENTED_EDGE ( 'NONE', *, *, #208, .T. ) ;
#228 = ORIENTED_EDGE ( 'NONE', *, *, #159, .F. ) ;
#229 = AXIS2_PLACEMENT_3D ( 'NONE', #30, #191, #75 ) ;
#230 = APPROVAL_DATE_TIME ( #37, #225 ) ;
#231 = PRODUCT_DEFINITION ( 'UNKNOWN', '', #243, #49 ) ;
#232 = ORIENTED_EDGE ( 'NONE', *, *, #31, .F. ) ;
#233 = CC_DESIGN_DATE_AND_TIME_ASSIGNMENT ( #241, #47, ( #231 ) ) ;
#234 = ORIENTED_EDGE ( 'NONE', *, *, #159, .T. ) ;
#235 = CIRCLE ( 'NONE', #161, 4.027559055118110200 ) ;
#236 = ADVANCED_FACE ( 'NONE', ( #3, #192 ), #119, .T. ) ;
#237 = APPLICATION_PROTOCOL_DEFINITION ( 'international standard', 'config_control_design', 1994, #216 ) ;
#238 = SHAPE_DEFINITION_REPRESENTATION ( #118, #172 ) ;
#239 = DIRECTION ( 'NONE',  ( 1.000000000000000000, 0.0000000000000000000, 0.0000000000000000000 ) ) ;
#240 = APPROVAL_STATUS ( 'not_yet_approved' ) ;
#241 = DATE_AND_TIME ( #23, #13 ) ;
#242 = CARTESIAN_POINT ( 'NONE',  ( 0.0000000000000000000, 4.474409448818898100, -1.095878048125299400E-015 ) ) ;
#243 = PRODUCT_DEFINITION_FORMATION_WITH_SPECIFIED_SOURCE ( 'ANY', '', #92, .NOT_KNOWN. ) ;
#244 = EDGE_LOOP ( 'NONE', ( #87 ) ) ;
#245 = APPROVAL ( #50, 'UNSPECIFIED' ) ;
#246 = CONICAL_SURFACE ( 'NONE', #144, 4.564494805464464700, 0.5235987755982962600 ) ;
#247 = CARTESIAN_POINT ( 'NONE',  ( -5.196850393700787900, 0.0000000000000000000, -6.299212598425197200 ) ) ;
#248 = EDGE_LOOP ( 'NONE', ( #28 ) ) ;
#249 = DIRECTION ( 'NONE',  ( 0.0000000000000000000, 0.0000000000000000000, -1.000000000000000000 ) ) ;
#250 = FACE_OUTER_BOUND ( 'NONE', #244, .T. ) ;
#251 = DATE_TIME_ROLE ( 'classification_date' ) ;
#252 = EDGE_LOOP ( 'NONE', ( #127 ) ) ;
ENDSEC;
END-ISO-10303-21;
