ISO-10303-21;
HEADER;
FILE_DESCRIPTION (( 'STEP AP203' ),
    '1' );
FILE_NAME ('581136060.STEP',
    '2017-07-31T14:05:54',
    ( '' ),
    ( '' ),
    'SwSTEP 2.0',
    'SolidWorks 2017',
    '' );
FILE_SCHEMA (( 'CONFIG_CONTROL_DESIGN' ));
ENDSEC;

DATA;
#1 = ORGANIZATION ( 'UNSPECIFIED', 'UNSPECIFIED', '' ) ;
#2 = MANIFOLD_SOLID_BREP ( '1', #86 ) ;
#3 = CARTESIAN_POINT ( 'NONE',  ( 4.865064948716882500E-016, 3.149606299212598200, -6.598241975838162200E-033 ) ) ;
#4 = SHAPE_DEFINITION_REPRESENTATION ( #106, #93 ) ;
#5 = DATE_AND_TIME ( #11, #144 ) ;
#6 = CC_DESIGN_PERSON_AND_ORGANIZATION_ASSIGNMENT ( #241, #88, ( #50 ) ) ;
#7 = CARTESIAN_POINT ( 'NONE',  ( -3.622047244094487100, 4.097771990496394800E-016, 2.863478284201111700 ) ) ;
#8 = CC_DESIGN_APPROVAL ( #245, ( #50 ) ) ;
#9 = ORIENTED_EDGE ( 'NONE', *, *, #132, .F. ) ;
#10 = ADVANCED_FACE ( 'NONE', ( #31, #48 ), #218, .T. ) ;
#11 = CALENDAR_DATE ( 2017, 31, 7 ) ;
#12 = FACE_OUTER_BOUND ( 'NONE', #63, .T. ) ;
#13 = FACE_BOUND ( 'NONE', #113, .T. ) ;
#14 = UNCERTAINTY_MEASURE_WITH_UNIT (LENGTH_MEASURE( 1.000000000000000100E-005 ), #215, 'distance_accuracy_value', 'NONE');
#15 = CC_DESIGN_DATE_AND_TIME_ASSIGNMENT ( #170, #231, ( #84 ) ) ;
#16 = ADVANCED_FACE ( 'NONE', ( #125, #217 ), #79, .T. ) ;
#17 = DIRECTION ( 'NONE',  ( -1.000000000000000000, 2.379049338482477200E-016, -7.930164461608266100E-017 ) ) ;
#18 = DIRECTION ( 'NONE',  ( 2.602085213965210100E-016, 1.000000000000000000, -2.428612866367529900E-016 ) ) ;
#19 = FACE_OUTER_BOUND ( 'NONE', #56, .T. ) ;
#20 = AXIS2_PLACEMENT_3D ( 'NONE', #57, #46, #173 ) ;
#21 = CARTESIAN_POINT ( 'NONE',  ( 3.977190595576052300E-016, 2.574803149606299100, -5.394062815247698500E-033 ) ) ;
#22 = PERSON_AND_ORGANIZATION ( #183, #1 ) ;
#23 = DIRECTION ( 'NONE',  ( -1.000000000000000000, 1.544658121217610000E-016, -0.0000000000000000000 ) ) ;
#24 = CARTESIAN_POINT ( 'NONE',  ( -1.811023622047243500, 2.731847993664263200E-016, 0.0000000000000000000 ) ) ;
#25 = CIRCLE ( 'NONE', #139, 3.149606299212598200 ) ;
#26 = ORIENTED_EDGE ( 'NONE', *, *, #202, .T. ) ;
#27 = APPROVAL ( #225, 'UNSPECIFIED' ) ;
#28 = CC_DESIGN_PERSON_AND_ORGANIZATION_ASSIGNMENT ( #111, #53, ( #205 ) ) ;
#29 = DIRECTION ( 'NONE',  ( 0.0000000000000000000, 0.0000000000000000000, 1.000000000000000000 ) ) ;
#30 = PERSON_AND_ORGANIZATION ( #183, #1 ) ;
#31 = FACE_BOUND ( 'NONE', #96, .T. ) ;
#32 = EDGE_CURVE ( 'NONE', #67, #67, #222, .T. ) ;
#33 = PLANE ( 'NONE',  #249 ) ;
#34 = COORDINATED_UNIVERSAL_TIME_OFFSET ( 5, 0, .BEHIND. ) ;
#35 = VERTEX_POINT ( 'NONE', #21 ) ;
#36 = DIRECTION ( 'NONE',  ( 1.000000000000000000, -0.0000000000000000000, -3.697785493223492800E-032 ) ) ;
#37 = EDGE_LOOP ( 'NONE', ( #140 ) ) ;
#38 = DIRECTION ( 'NONE',  ( 1.544658121217610500E-016, 1.000000000000000000, -2.094941827328617000E-033 ) ) ;
#39 = APPROVAL ( #155, 'UNSPECIFIED' ) ;
#40 = APPROVAL_ROLE ( '' ) ;
#41 = APPROVAL_PERSON_ORGANIZATION ( #30, #245, #76 ) ;
#42 = DIRECTION ( 'NONE',  ( -1.000000000000000000, 1.544658121217610000E-016, -0.0000000000000000000 ) ) ;
#43 = PRODUCT_RELATED_PRODUCT_CATEGORY ( 'detail', '', ( #205 ) ) ;
#44 = APPLICATION_PROTOCOL_DEFINITION ( 'international standard', 'config_control_design', 1994, #160 ) ;
#45 = EDGE_LOOP ( 'NONE', ( #169 ) ) ;
#46 = DIRECTION ( 'NONE',  ( 1.000000000000000000, 1.244455996452141400E-066, -3.851859888774472300E-032 ) ) ;
#47 = VERTEX_POINT ( 'NONE', #7 ) ;
#48 = FACE_OUTER_BOUND ( 'NONE', #37, .T. ) ;
#49 = FACE_OUTER_BOUND ( 'NONE', #118, .T. ) ;
#50 = PRODUCT_DEFINITION_FORMATION_WITH_SPECIFIED_SOURCE ( 'ANY', '', #205, .NOT_KNOWN. ) ;
#51 = AXIS2_PLACEMENT_3D ( 'NONE', #221, #29, #82 ) ;
#52 = DIRECTION ( 'NONE',  ( -1.586032892321652200E-016, -1.000000000000000000, 2.790283294168761900E-033 ) ) ;
#53 = PERSON_AND_ORGANIZATION_ROLE ( 'design_owner' ) ;
#54 =( GEOMETRIC_REPRESENTATION_CONTEXT ( 3 ) GLOBAL_UNCERTAINTY_ASSIGNED_CONTEXT ( ( #14 ) ) GLOBAL_UNIT_ASSIGNED_CONTEXT ( ( #215, #164, #246 ) ) REPRESENTATION_CONTEXT ( 'NONE', 'WORKASPACE' ) );
#55 = LOCAL_TIME ( 10, 5, 54.00000000000000000, #34 ) ;
#56 = EDGE_LOOP ( 'NONE', ( #151 ) ) ;
#57 = CARTESIAN_POINT ( 'NONE',  ( 0.0000000000000000000, 2.862204724409448200, 8.741913579725642300E-015 ) ) ;
#58 = CC_DESIGN_APPROVAL ( #39, ( #84 ) ) ;
#59 = EDGE_LOOP ( 'NONE', ( #150 ) ) ;
#60 = CARTESIAN_POINT ( 'NONE',  ( -3.122047244094485800, -2.574803149606298600, 5.394062815247699200E-033 ) ) ;
#61 = CARTESIAN_POINT ( 'NONE',  ( 0.0000000000000000000, 0.0000000000000000000, 0.0000000000000000000 ) ) ;
#62 = VERTEX_POINT ( 'NONE', #60 ) ;
#63 = EDGE_LOOP ( 'NONE', ( #122 ) ) ;
#64 = EDGE_LOOP ( 'NONE', ( #240 ) ) ;
#65 = CARTESIAN_POINT ( 'NONE',  ( -2.637795275590553600, 2.731847993664263200E-016, 0.0000000000000000000 ) ) ;
#66 = DIRECTION ( 'NONE',  ( -1.000000000000000000, 1.544658121217610000E-016, -0.0000000000000000000 ) ) ;
#67 = VERTEX_POINT ( 'NONE', #196 ) ;
#68 = CYLINDRICAL_SURFACE ( 'NONE', #100, 2.574803149606300000 ) ;
#69 = CARTESIAN_POINT ( 'NONE',  ( -3.622047244094486600, 4.173228346456692600, -8.742670617985564900E-033 ) ) ;
#70 = LOCAL_TIME ( 10, 5, 54.00000000000000000, #186 ) ;
#71 = CIRCLE ( 'NONE', #80, 4.173228346456691700 ) ;
#72 = DIRECTION ( 'NONE',  ( -1.000000000000000000, 1.544658121217610000E-016, 1.540743955509788700E-033 ) ) ;
#73 = DIRECTION ( 'NONE',  ( -2.121985903335544100E-016, -1.000000000000000000, 2.094941827328617400E-033 ) ) ;
#74 = APPROVAL_PERSON_ORGANIZATION ( #22, #27, #40 ) ;
#75 = EDGE_CURVE ( 'NONE', #138, #138, #71, .T. ) ;
#76 = APPROVAL_ROLE ( '' ) ;
#77 = DIRECTION ( 'NONE',  ( 1.544658121217610300E-016, 1.000000000000000000, -2.094941827328616700E-033 ) ) ;
#78 = AXIS2_PLACEMENT_3D ( 'NONE', #61, #23, #38 ) ;
#79 = CONICAL_SURFACE ( 'NONE', #188, 3.444881889763779600, 0.2530756521646014800 ) ;
#80 = AXIS2_PLACEMENT_3D ( 'NONE', #179, #66, #92 ) ;
#81 = DIRECTION ( 'NONE',  ( -3.851859888774472300E-032, 8.076981201204064000E-034, -1.000000000000000000 ) ) ;
#82 = DIRECTION ( 'NONE',  ( 1.000000000000000000, 0.0000000000000000000, 0.0000000000000000000 ) ) ;
#83 = DIRECTION ( 'NONE',  ( 1.060992951667771700E-016, 1.000000000000000000, -2.094941827328616400E-033 ) ) ;
#84 = PRODUCT_DEFINITION ( 'UNKNOWN', '', #50, #161 ) ;
#85 = CARTESIAN_POINT ( 'NONE',  ( -0.7480314960629928000, -1.365923996832131600E-016, 0.0000000000000000000 ) ) ;
#86 = CLOSED_SHELL ( 'NONE', ( #114, #168, #223, #165, #10, #16, #110, #130 ) ) ;
#87 = SECURITY_CLASSIFICATION_LEVEL ( 'unclassified' ) ;
#88 = PERSON_AND_ORGANIZATION_ROLE ( 'design_supplier' ) ;
#89 = LOCAL_TIME ( 10, 5, 54.00000000000000000, #213 ) ;
#90 = APPROVAL_ROLE ( '' ) ;
#91 = DATE_AND_TIME ( #162, #55 ) ;
#92 = DIRECTION ( 'NONE',  ( 1.309225264888156600E-016, 1.000000000000000000, -2.094941827328617000E-033 ) ) ;
#93 = ADVANCED_BREP_SHAPE_REPRESENTATION ( '581136060', ( #2, #51 ), #54 ) ;
#94 = COORDINATED_UNIVERSAL_TIME_OFFSET ( 5, 0, .BEHIND. ) ;
#95 = CARTESIAN_POINT ( 'NONE',  ( -3.622047244094487100, 4.097771990496394800E-016, 0.0000000000000000000 ) ) ;
#96 = EDGE_LOOP ( 'NONE', ( #101 ) ) ;
#97 = FACE_OUTER_BOUND ( 'NONE', #171, .T. ) ;
#98 = CIRCLE ( 'NONE', #124, 4.173228346456691700 ) ;
#99 = PERSON_AND_ORGANIZATION_ROLE ( 'creator' ) ;
#100 = AXIS2_PLACEMENT_3D ( 'NONE', #24, #212, #83 ) ;
#101 = ORIENTED_EDGE ( 'NONE', *, *, #147, .T. ) ;
#102 = DIRECTION ( 'NONE',  ( 1.000000000000000000, -1.544658121217610000E-016, 0.0000000000000000000 ) ) ;
#103 = CIRCLE ( 'NONE', #176, 2.574803149606299100 ) ;
#104 = ORIENTED_EDGE ( 'NONE', *, *, #191, .T. ) ;
#105 = CARTESIAN_POINT ( 'NONE',  ( -1.496062992125982700, 3.149606299212599000, -7.649174382259939000E-016 ) ) ;
#106 = PRODUCT_DEFINITION_SHAPE ( 'NONE', 'NONE',  #84 ) ;
#107 = PERSON_AND_ORGANIZATION_ROLE ( 'classification_officer' ) ;
#108 = APPROVAL_DATE_TIME ( #127, #27 ) ;
#109 = EDGE_LOOP ( 'NONE', ( #145 ) ) ;
#110 = ADVANCED_FACE ( 'NONE', ( #228, #19 ), #157, .T. ) ;
#111 = PERSON_AND_ORGANIZATION ( #183, #1 ) ;
#112 = CIRCLE ( 'NONE', #134, 2.863478284201111700 ) ;
#113 = EDGE_LOOP ( 'NONE', ( #182 ) ) ;
#114 = ADVANCED_FACE ( 'NONE', ( #117, #204 ), #33, .T. ) ;
#115 = CC_DESIGN_APPROVAL ( #27, ( #141 ) ) ;
#116 = CARTESIAN_POINT ( 'NONE',  ( -2.637795275590550900, 4.173228346456692600, -8.742670617985564900E-033 ) ) ;
#117 = FACE_BOUND ( 'NONE', #178, .T. ) ;
#118 = EDGE_LOOP ( 'NONE', ( #9 ) ) ;
#119 = EDGE_LOOP ( 'NONE', ( #26 ) ) ;
#120 = DIMENSIONAL_EXPONENTS ( 1.000000000000000000, 0.0000000000000000000, 0.0000000000000000000, 0.0000000000000000000, 0.0000000000000000000, 0.0000000000000000000, 0.0000000000000000000 ) ;
#121 = CARTESIAN_POINT ( 'NONE',  ( -3.122047244094485300, 5.463695987328526400E-016, 0.0000000000000000000 ) ) ;
#122 = ORIENTED_EDGE ( 'NONE', *, *, #191, .F. ) ;
#123 = CARTESIAN_POINT ( 'NONE',  ( -1.496062992125983400, 2.731847993664263200E-016, 0.0000000000000000000 ) ) ;
#124 = AXIS2_PLACEMENT_3D ( 'NONE', #153, #42, #224 ) ;
#125 = FACE_OUTER_BOUND ( 'NONE', #163, .T. ) ;
#126 = EDGE_CURVE ( 'NONE', #206, #206, #25, .T. ) ;
#127 = DATE_AND_TIME ( #197, #148 ) ;
#128 = DIRECTION ( 'NONE',  ( -1.000000000000000000, 1.544658121217610000E-016, 1.540743955509788700E-033 ) ) ;
#129 = ORIENTED_EDGE ( 'NONE', *, *, #132, .T. ) ;
#130 = ADVANCED_FACE ( 'NONE', ( #220, #12 ), #243, .F. ) ;
#131 = CIRCLE ( 'NONE', #159, 3.149606299212599000 ) ;
#132 = EDGE_CURVE ( 'NONE', #219, #219, #98, .T. ) ;
#133 = DIRECTION ( 'NONE',  ( 1.309225264888156600E-016, 1.000000000000000000, -2.094941827328617000E-033 ) ) ;
#134 = AXIS2_PLACEMENT_3D ( 'NONE', #189, #36, #211 ) ;
#135 = PERSON_AND_ORGANIZATION_ROLE ( 'creator' ) ;
#136 = APPROVAL_STATUS ( 'not_yet_approved' ) ;
#137 = CALENDAR_DATE ( 2017, 31, 7 ) ;
#138 = VERTEX_POINT ( 'NONE', #69 ) ;
#139 = AXIS2_PLACEMENT_3D ( 'NONE', #190, #232, #77 ) ;
#140 = ORIENTED_EDGE ( 'NONE', *, *, #126, .T. ) ;
#141 = SECURITY_CLASSIFICATION ( '', '', #87 ) ;
#142 = LENGTH_MEASURE_WITH_UNIT ( LENGTH_MEASURE( 0.02539999999999999900 ), #172 );
#143 = EDGE_LOOP ( 'NONE', ( #152 ) ) ;
#144 = LOCAL_TIME ( 10, 5, 54.00000000000000000, #235 ) ;
#145 = ORIENTED_EDGE ( 'NONE', *, *, #234, .F. ) ;
#146 = APPLICATION_PROTOCOL_DEFINITION ( 'international standard', 'config_control_design', 1994, #216 ) ;
#147 = EDGE_CURVE ( 'NONE', #35, #35, #250, .T. ) ;
#148 = LOCAL_TIME ( 10, 5, 54.00000000000000000, #94 ) ;
#149 = CC_DESIGN_SECURITY_CLASSIFICATION ( #141, ( #50 ) ) ;
#150 = ORIENTED_EDGE ( 'NONE', *, *, #234, .T. ) ;
#151 = ORIENTED_EDGE ( 'NONE', *, *, #126, .F. ) ;
#152 = ORIENTED_EDGE ( 'NONE', *, *, #75, .F. ) ;
#153 = CARTESIAN_POINT ( 'NONE',  ( -2.637795275590551400, 4.097771990496394800E-016, 0.0000000000000000000 ) ) ;
#154 = ORIENTED_EDGE ( 'NONE', *, *, #32, .F. ) ;
#155 = APPROVAL_STATUS ( 'not_yet_approved' ) ;
#156 = CC_DESIGN_DATE_AND_TIME_ASSIGNMENT ( #5, #210, ( #141 ) ) ;
#157 = CYLINDRICAL_SURFACE ( 'NONE', #158, 3.149606299212598200 ) ;
#158 = AXIS2_PLACEMENT_3D ( 'NONE', #85, #102, #201 ) ;
#159 = AXIS2_PLACEMENT_3D ( 'NONE', #123, #184, #18 ) ;
#160 = APPLICATION_CONTEXT ( 'configuration controlled 3d designs of mechanical parts and assemblies' ) ;
#161 = DESIGN_CONTEXT ( 'detailed design', #160, 'design' ) ;
#162 = CALENDAR_DATE ( 2017, 31, 7 ) ;
#163 = EDGE_LOOP ( 'NONE', ( #154 ) ) ;
#164 =( NAMED_UNIT ( * ) PLANE_ANGLE_UNIT ( ) SI_UNIT ( $, .RADIAN. ) );
#165 = ADVANCED_FACE ( 'NONE', ( #13, #49 ), #252, .T. ) ;
#166 = CC_DESIGN_PERSON_AND_ORGANIZATION_ASSIGNMENT ( #177, #135, ( #50 ) ) ;
#167 = DATE_AND_TIME ( #137, #89 ) ;
#168 = ADVANCED_FACE ( 'NONE', ( #193, #97 ), #244, .T. ) ;
#169 = ORIENTED_EDGE ( 'NONE', *, *, #147, .F. ) ;
#170 = DATE_AND_TIME ( #242, #70 ) ;
#171 = EDGE_LOOP ( 'NONE', ( #129 ) ) ;
#172 =( LENGTH_UNIT ( ) NAMED_UNIT ( * ) SI_UNIT ( $, .METRE. ) );
#173 = DIRECTION ( 'NONE',  ( -3.851859888774472300E-032, 8.076981201204064000E-034, -1.000000000000000000 ) ) ;
#174 = AXIS2_PLACEMENT_3D ( 'NONE', #198, #239, #81 ) ;
#175 = AXIS2_PLACEMENT_3D ( 'NONE', #236, #237, #133 ) ;
#176 = AXIS2_PLACEMENT_3D ( 'NONE', #121, #128, #73 ) ;
#177 = PERSON_AND_ORGANIZATION ( #183, #1 ) ;
#178 = EDGE_LOOP ( 'NONE', ( #104 ) ) ;
#179 = CARTESIAN_POINT ( 'NONE',  ( -3.622047244094487100, 4.097771990496394800E-016, 0.0000000000000000000 ) ) ;
#180 = EDGE_LOOP ( 'NONE', ( #209 ) ) ;
#181 = CARTESIAN_POINT ( 'NONE',  ( -2.637795275590551400, 2.731847993664263200E-016, 0.0000000000000000000 ) ) ;
#182 = ORIENTED_EDGE ( 'NONE', *, *, #32, .T. ) ;
#183 = PERSON ( 'UNSPECIFIED', 'UNSPECIFIED', 'UNSPECIFIED', ('UNSPECIFIED'), ('UNSPECIFIED'), ('UNSPECIFIED') ) ;
#184 = DIRECTION ( 'NONE',  ( -1.000000000000000000, 1.544658121217610000E-016, 0.0000000000000000000 ) ) ;
#185 = APPROVAL_DATE_TIME ( #167, #245 ) ;
#186 = COORDINATED_UNIVERSAL_TIME_OFFSET ( 5, 0, .BEHIND. ) ;
#187 = FACE_OUTER_BOUND ( 'NONE', #45, .T. ) ;
#188 = AXIS2_PLACEMENT_3D ( 'NONE', #65, #238, #233 ) ;
#189 = CARTESIAN_POINT ( 'NONE',  ( -3.622047244094487100, 4.097771990496394800E-016, 0.0000000000000000000 ) ) ;
#190 = CARTESIAN_POINT ( 'NONE',  ( 0.0000000000000000000, 0.0000000000000000000, 0.0000000000000000000 ) ) ;
#191 = EDGE_CURVE ( 'NONE', #47, #47, #112, .T. ) ;
#192 = DIRECTION ( 'NONE',  ( 3.851859888774472300E-032, -8.076981201204064000E-034, 1.000000000000000000 ) ) ;
#193 = FACE_OUTER_BOUND ( 'NONE', #143, .T. ) ;
#194 = VERTEX_POINT ( 'NONE', #105 ) ;
#195 = AXIS2_PLACEMENT_3D ( 'NONE', #181, #17, #52 ) ;
#196 = CARTESIAN_POINT ( 'NONE',  ( -2.637795275590551800, -3.444881889763779600, 9.612196387392388600E-033 ) ) ;
#197 = CALENDAR_DATE ( 2017, 31, 7 ) ;
#198 = CARTESIAN_POINT ( 'NONE',  ( -2.637795275590551400, 3.809055118110234800, 8.741913579725642300E-015 ) ) ;
#199 = PERSON_AND_ORGANIZATION ( #183, #1 ) ;
#200 = CARTESIAN_POINT ( 'NONE',  ( -3.622047244094487100, 3.374015748031496300, 0.0000000000000000000 ) ) ;
#201 = DIRECTION ( 'NONE',  ( 1.734723475976807300E-016, 1.000000000000000000, -2.094941827328616700E-033 ) ) ;
#202 = EDGE_CURVE ( 'NONE', #62, #62, #103, .T. ) ;
#203 = APPROVAL_DATE_TIME ( #91, #39 ) ;
#204 = FACE_OUTER_BOUND ( 'NONE', #180, .T. ) ;
#205 = PRODUCT ( '581136060', '581136060', '', ( #230 ) ) ;
#206 = VERTEX_POINT ( 'NONE', #3 ) ;
#207 = FACE_OUTER_BOUND ( 'NONE', #119, .T. ) ;
#208 = CC_DESIGN_PERSON_AND_ORGANIZATION_ASSIGNMENT ( #248, #99, ( #84 ) ) ;
#209 = ORIENTED_EDGE ( 'NONE', *, *, #75, .T. ) ;
#210 = DATE_TIME_ROLE ( 'classification_date' ) ;
#211 = DIRECTION ( 'NONE',  ( 0.0000000000000000000, 0.0000000000000000000, 1.000000000000000000 ) ) ;
#212 = DIRECTION ( 'NONE',  ( 1.000000000000000000, -1.544658121217610000E-016, 0.0000000000000000000 ) ) ;
#213 = COORDINATED_UNIVERSAL_TIME_OFFSET ( 5, 0, .BEHIND. ) ;
#214 = AXIS2_PLACEMENT_3D ( 'NONE', #95, #72, #226 ) ;
#215 =( CONVERSION_BASED_UNIT ( 'INCH', #142 ) LENGTH_UNIT ( ) NAMED_UNIT ( #120 ) );
#216 = APPLICATION_CONTEXT ( 'configuration controlled 3d designs of mechanical parts and assemblies' ) ;
#217 = FACE_BOUND ( 'NONE', #59, .T. ) ;
#218 = PLANE ( 'NONE',  #20 ) ;
#219 = VERTEX_POINT ( 'NONE', #116 ) ;
#220 = FACE_BOUND ( 'NONE', #64, .T. ) ;
#221 = CARTESIAN_POINT ( 'NONE',  ( 0.0000000000000000000, 0.0000000000000000000, 0.0000000000000000000 ) ) ;
#222 = CIRCLE ( 'NONE', #195, 3.444881889763779600 ) ;
#223 = ADVANCED_FACE ( 'NONE', ( #207, #187 ), #68, .F. ) ;
#224 = DIRECTION ( 'NONE',  ( 1.309225264888156600E-016, 1.000000000000000000, -2.094941827328617000E-033 ) ) ;
#225 = APPROVAL_STATUS ( 'not_yet_approved' ) ;
#226 = DIRECTION ( 'NONE',  ( -1.908062658436697500E-016, -1.000000000000000000, 2.094941827328617000E-033 ) ) ;
#227 = PERSON_AND_ORGANIZATION ( #183, #1 ) ;
#228 = FACE_OUTER_BOUND ( 'NONE', #109, .T. ) ;
#229 = APPROVAL_PERSON_ORGANIZATION ( #227, #39, #90 ) ;
#230 = MECHANICAL_CONTEXT ( 'NONE', #216, 'mechanical' ) ;
#231 = DATE_TIME_ROLE ( 'creation_date' ) ;
#232 = DIRECTION ( 'NONE',  ( 1.000000000000000000, -1.544658121217610000E-016, 0.0000000000000000000 ) ) ;
#233 = DIRECTION ( 'NONE',  ( -1.586032892321652200E-016, -1.000000000000000000, 2.790283294168761900E-033 ) ) ;
#234 = EDGE_CURVE ( 'NONE', #194, #194, #131, .T. ) ;
#235 = COORDINATED_UNIVERSAL_TIME_OFFSET ( 5, 0, .BEHIND. ) ;
#236 = CARTESIAN_POINT ( 'NONE',  ( -3.129921259842520300, 5.463695987328526400E-016, 0.0000000000000000000 ) ) ;
#237 = DIRECTION ( 'NONE',  ( 1.000000000000000000, -1.544658121217610000E-016, 0.0000000000000000000 ) ) ;
#238 = DIRECTION ( 'NONE',  ( -1.000000000000000000, 2.379049338482477200E-016, -7.930164461608266100E-017 ) ) ;
#239 = DIRECTION ( 'NONE',  ( 1.000000000000000000, 1.244455996452141400E-066, -3.851859888774472300E-032 ) ) ;
#240 = ORIENTED_EDGE ( 'NONE', *, *, #202, .F. ) ;
#241 = PERSON_AND_ORGANIZATION ( #183, #1 ) ;
#242 = CALENDAR_DATE ( 2017, 31, 7 ) ;
#243 = CONICAL_SURFACE ( 'NONE', #214, 2.863478284201111700, 0.5235987755982958200 ) ;
#244 = CYLINDRICAL_SURFACE ( 'NONE', #175, 4.173228346456691700 ) ;
#245 = APPROVAL ( #136, 'UNSPECIFIED' ) ;
#246 =( NAMED_UNIT ( * ) SI_UNIT ( $, .STERADIAN. ) SOLID_ANGLE_UNIT ( ) );
#247 = CC_DESIGN_PERSON_AND_ORGANIZATION_ASSIGNMENT ( #199, #107, ( #141 ) ) ;
#248 = PERSON_AND_ORGANIZATION ( #183, #1 ) ;
#249 = AXIS2_PLACEMENT_3D ( 'NONE', #200, #251, #192 ) ;
#250 = CIRCLE ( 'NONE', #78, 2.574803149606299100 ) ;
#251 = DIRECTION ( 'NONE',  ( -1.000000000000000000, -1.244455996452141400E-066, 3.851859888774472300E-032 ) ) ;
#252 = PLANE ( 'NONE',  #174 ) ;
ENDSEC;
END-ISO-10303-21;
