ISO-10303-21;
HEADER;
FILE_DESCRIPTION (( 'STEP AP203' ),
    '1' );
FILE_NAME ('581136040.STEP',
    '2017-07-31T13:50:08',
    ( '' ),
    ( '' ),
    'SwSTEP 2.0',
    'SolidWorks 2017',
    '' );
FILE_SCHEMA (( 'CONFIG_CONTROL_DESIGN' ));
ENDSEC;

DATA;
#1 = APPROVAL ( #160, 'UNSPECIFIED' ) ;
#2 = APPROVAL_DATE_TIME ( #239, #10 ) ;
#3 = ORIENTED_EDGE ( 'NONE', *, *, #197, .F. ) ;
#4 = CC_DESIGN_PERSON_AND_ORGANIZATION_ASSIGNMENT ( #94, #37, ( #220 ) ) ;
#5 = CARTESIAN_POINT ( 'NONE',  ( -1.496062992125984300, 2.165354330708661600, -5.303413343325247800E-016 ) ) ;
#6 = CARTESIAN_POINT ( 'NONE',  ( -3.149606299212598600, 0.0000000000000000000, 1.998956798893552600 ) ) ;
#7 = DESIGN_CONTEXT ( 'detailed design', #151, 'design' ) ;
#8 = EDGE_LOOP ( 'NONE', ( #32 ) ) ;
#9 = DIRECTION ( 'NONE',  ( -1.000000000000000000, -0.0000000000000000000, -0.0000000000000000000 ) ) ;
#10 = APPROVAL ( #125, 'UNSPECIFIED' ) ;
#11 = DIRECTION ( 'NONE',  ( 1.000000000000000000, 0.0000000000000000000, 0.0000000000000000000 ) ) ;
#12 = DIRECTION ( 'NONE',  ( -1.000000000000000000, -0.0000000000000000000, 0.0000000000000000000 ) ) ;
#13 = DIRECTION ( 'NONE',  ( 0.0000000000000000000, 0.0000000000000000000, -1.000000000000000000 ) ) ;
#14 = FACE_OUTER_BOUND ( 'NONE', #122, .T. ) ;
#15 = LENGTH_MEASURE_WITH_UNIT ( LENGTH_MEASURE( 0.02539999999999999900 ), #247 );
#16 = FACE_BOUND ( 'NONE', #61, .T. ) ;
#17 = EDGE_CURVE ( 'NONE', #189, #189, #56, .T. ) ;
#18 =( NAMED_UNIT ( * ) PLANE_ANGLE_UNIT ( ) SI_UNIT ( $, .RADIAN. ) );
#19 = ORIENTED_EDGE ( 'NONE', *, *, #150, .T. ) ;
#20 = CARTESIAN_POINT ( 'NONE',  ( -2.440944881889763900, 0.0000000000000000000, 2.460629921259842100 ) ) ;
#21 = DATE_TIME_ROLE ( 'classification_date' ) ;
#22 = CC_DESIGN_DATE_AND_TIME_ASSIGNMENT ( #157, #91, ( #58 ) ) ;
#23 = APPROVAL ( #224, 'UNSPECIFIED' ) ;
#24 = DIRECTION ( 'NONE',  ( 0.0000000000000000000, 0.0000000000000000000, 1.000000000000000000 ) ) ;
#25 = ORIENTED_EDGE ( 'NONE', *, *, #63, .T. ) ;
#26 = ORIENTED_EDGE ( 'NONE', *, *, #188, .F. ) ;
#27 = PERSON_AND_ORGANIZATION ( #163, #208 ) ;
#28 = ORIENTED_EDGE ( 'NONE', *, *, #150, .F. ) ;
#29 = ADVANCED_FACE ( 'NONE', ( #147, #168 ), #209, .F. ) ;
#30 = CIRCLE ( 'NONE', #177, 1.998956798893552600 ) ;
#31 = ORIENTED_EDGE ( 'NONE', *, *, #67, .F. ) ;
#32 = ORIENTED_EDGE ( 'NONE', *, *, #191, .T. ) ;
#33 = APPROVAL_PERSON_ORGANIZATION ( #142, #1, #234 ) ;
#34 = LOCAL_TIME ( 9, 50, 8.000000000000000000, #93 ) ;
#35 = CIRCLE ( 'NONE', #193, 1.771653543307086600 ) ;
#36 = SECURITY_CLASSIFICATION_LEVEL ( 'unclassified' ) ;
#37 = PERSON_AND_ORGANIZATION_ROLE ( 'design_owner' ) ;
#38 = EDGE_LOOP ( 'NONE', ( #45 ) ) ;
#39 = DIRECTION ( 'NONE',  ( 0.0000000000000000000, 0.0000000000000000000, -1.000000000000000000 ) ) ;
#40 = AXIS2_PLACEMENT_3D ( 'NONE', #215, #149, #13 ) ;
#41 = FACE_BOUND ( 'NONE', #60, .T. ) ;
#42 = AXIS2_PLACEMENT_3D ( 'NONE', #182, #105, #39 ) ;
#43 =( CONVERSION_BASED_UNIT ( 'INCH', #15 ) LENGTH_UNIT ( ) NAMED_UNIT ( #69 ) );
#44 = COORDINATED_UNIVERSAL_TIME_OFFSET ( 5, 0, .BEHIND. ) ;
#45 = ORIENTED_EDGE ( 'NONE', *, *, #67, .T. ) ;
#46 = EDGE_LOOP ( 'NONE', ( #57 ) ) ;
#47 = FACE_OUTER_BOUND ( 'NONE', #211, .T. ) ;
#48 = CARTESIAN_POINT ( 'NONE',  ( -3.149606299212598600, 2.440944881889763900, -5.978393223384843700E-016 ) ) ;
#49 = PERSON_AND_ORGANIZATION_ROLE ( 'design_supplier' ) ;
#50 =( GEOMETRIC_REPRESENTATION_CONTEXT ( 3 ) GLOBAL_UNCERTAINTY_ASSIGNED_CONTEXT ( ( #112 ) ) GLOBAL_UNIT_ASSIGNED_CONTEXT ( ( #43, #18, #134 ) ) REPRESENTATION_CONTEXT ( 'NONE', 'WORKASPACE' ) );
#51 = CARTESIAN_POINT ( 'NONE',  ( 0.0000000000000000000, 0.0000000000000000000, 0.0000000000000000000 ) ) ;
#52 = EDGE_CURVE ( 'NONE', #92, #92, #121, .T. ) ;
#53 = CALENDAR_DATE ( 2017, 31, 7 ) ;
#54 = CLOSED_SHELL ( 'NONE', ( #199, #76, #202, #178, #55, #66, #80, #29 ) ) ;
#55 = ADVANCED_FACE ( 'NONE', ( #16, #47 ), #175, .T. ) ;
#56 = CIRCLE ( 'NONE', #141, 3.110236220472441200 ) ;
#57 = ORIENTED_EDGE ( 'NONE', *, *, #63, .F. ) ;
#58 = PRODUCT_DEFINITION ( 'UNKNOWN', '', #226, #7 ) ;
#59 = CALENDAR_DATE ( 2017, 31, 7 ) ;
#60 = EDGE_LOOP ( 'NONE', ( #19 ) ) ;
#61 = EDGE_LOOP ( 'NONE', ( #84 ) ) ;
#62 = PERSON_AND_ORGANIZATION_ROLE ( 'creator' ) ;
#63 = EDGE_CURVE ( 'NONE', #237, #237, #251, .T. ) ;
#64 = CALENDAR_DATE ( 2017, 31, 7 ) ;
#65 = PERSON_AND_ORGANIZATION_ROLE ( 'classification_officer' ) ;
#66 = ADVANCED_FACE ( 'NONE', ( #135, #41 ), #82, .T. ) ;
#67 = EDGE_CURVE ( 'NONE', #233, #233, #228, .T. ) ;
#68 = CARTESIAN_POINT ( 'NONE',  ( -2.440944881889763900, 0.0000000000000000000, 0.0000000000000000000 ) ) ;
#69 = DIMENSIONAL_EXPONENTS ( 1.000000000000000000, 0.0000000000000000000, 0.0000000000000000000, 0.0000000000000000000, 0.0000000000000000000, 0.0000000000000000000, 0.0000000000000000000 ) ;
#70 = APPROVAL_DATE_TIME ( #187, #23 ) ;
#71 = CARTESIAN_POINT ( 'NONE',  ( -2.440944881889763900, 0.0000000000000000000, -3.110236220472441200 ) ) ;
#72 = CYLINDRICAL_SURFACE ( 'NONE', #180, 3.110236220472441200 ) ;
#73 = PRODUCT_RELATED_PRODUCT_CATEGORY ( 'detail', '', ( #220 ) ) ;
#74 = CYLINDRICAL_SURFACE ( 'NONE', #42, 2.165354330708661600 ) ;
#75 = PERSON_AND_ORGANIZATION ( #163, #208 ) ;
#76 = ADVANCED_FACE ( 'NONE', ( #131, #155 ), #72, .T. ) ;
#77 = DIRECTION ( 'NONE',  ( 0.0000000000000000000, 0.0000000000000000000, -1.000000000000000000 ) ) ;
#78 = CARTESIAN_POINT ( 'NONE',  ( 0.0000000000000000000, 0.0000000000000000000, -1.771653543307086600 ) ) ;
#79 = DIRECTION ( 'NONE',  ( -1.000000000000000000, 0.0000000000000000000, 0.0000000000000000000 ) ) ;
#80 = ADVANCED_FACE ( 'NONE', ( #132, #214 ), #74, .T. ) ;
#81 = CALENDAR_DATE ( 2017, 31, 7 ) ;
#82 = CONICAL_SURFACE ( 'NONE', #161, 2.460629921259842600, 0.3028848683749710800 ) ;
#83 = EDGE_LOOP ( 'NONE', ( #25 ) ) ;
#84 = ORIENTED_EDGE ( 'NONE', *, *, #188, .T. ) ;
#85 = DIRECTION ( 'NONE',  ( 0.0000000000000000000, 0.0000000000000000000, 1.000000000000000000 ) ) ;
#86 = DIRECTION ( 'NONE',  ( 0.0000000000000000000, 0.0000000000000000000, -1.000000000000000000 ) ) ;
#87 = PERSON_AND_ORGANIZATION_ROLE ( 'creator' ) ;
#88 = FACE_BOUND ( 'NONE', #104, .T. ) ;
#89 = VERTEX_POINT ( 'NONE', #5 ) ;
#90 = APPROVAL_ROLE ( '' ) ;
#91 = DATE_TIME_ROLE ( 'creation_date' ) ;
#92 = VERTEX_POINT ( 'NONE', #246 ) ;
#93 = COORDINATED_UNIVERSAL_TIME_OFFSET ( 5, 0, .BEHIND. ) ;
#94 = PERSON_AND_ORGANIZATION ( #163, #208 ) ;
#95 = PERSON_AND_ORGANIZATION ( #163, #208 ) ;
#96 = FACE_OUTER_BOUND ( 'NONE', #238, .T. ) ;
#97 = AXIS2_PLACEMENT_3D ( 'NONE', #143, #136, #110 ) ;
#98 = AXIS2_PLACEMENT_3D ( 'NONE', #181, #198, #24 ) ;
#99 = VERTEX_POINT ( 'NONE', #78 ) ;
#100 = APPLICATION_PROTOCOL_DEFINITION ( 'international standard', 'config_control_design', 1994, #151 ) ;
#101 = CC_DESIGN_PERSON_AND_ORGANIZATION_ASSIGNMENT ( #95, #65, ( #126 ) ) ;
#102 = CARTESIAN_POINT ( 'NONE',  ( -1.496062992125984500, 0.0000000000000000000, 0.0000000000000000000 ) ) ;
#103 = DATE_AND_TIME ( #81, #120 ) ;
#104 = EDGE_LOOP ( 'NONE', ( #145 ) ) ;
#105 = DIRECTION ( 'NONE',  ( 1.000000000000000000, 0.0000000000000000000, 0.0000000000000000000 ) ) ;
#106 = DIRECTION ( 'NONE',  ( 0.0000000000000000000, 0.0000000000000000000, -1.000000000000000000 ) ) ;
#107 = COORDINATED_UNIVERSAL_TIME_OFFSET ( 5, 0, .BEHIND. ) ;
#108 = DIRECTION ( 'NONE',  ( -1.000000000000000000, -0.0000000000000000000, -0.0000000000000000000 ) ) ;
#109 = CC_DESIGN_PERSON_AND_ORGANIZATION_ASSIGNMENT ( #203, #49, ( #226 ) ) ;
#110 = DIRECTION ( 'NONE',  ( 0.0000000000000000000, 0.0000000000000000000, -1.000000000000000000 ) ) ;
#111 = AXIS2_PLACEMENT_3D ( 'NONE', #102, #79, #116 ) ;
#112 = UNCERTAINTY_MEASURE_WITH_UNIT (LENGTH_MEASURE( 1.000000000000000100E-005 ), #43, 'distance_accuracy_value', 'NONE');
#113 = AXIS2_PLACEMENT_3D ( 'NONE', #185, #174, #77 ) ;
#114 = ORIENTED_EDGE ( 'NONE', *, *, #52, .F. ) ;
#115 = DIRECTION ( 'NONE',  ( 0.0000000000000000000, 0.0000000000000000000, -1.000000000000000000 ) ) ;
#116 = DIRECTION ( 'NONE',  ( 1.261617073437677800E-016, 1.000000000000000000, -2.449212707644750600E-016 ) ) ;
#117 = DIRECTION ( 'NONE',  ( -1.000000000000000000, -0.0000000000000000000, -0.0000000000000000000 ) ) ;
#118 = AXIS2_PLACEMENT_3D ( 'NONE', #48, #242, #186 ) ;
#119 = VERTEX_POINT ( 'NONE', #6 ) ;
#120 = LOCAL_TIME ( 9, 50, 8.000000000000000000, #171 ) ;
#121 = CIRCLE ( 'NONE', #113, 2.165354330708661600 ) ;
#122 = EDGE_LOOP ( 'NONE', ( #222 ) ) ;
#123 = EDGE_LOOP ( 'NONE', ( #26 ) ) ;
#124 = DIRECTION ( 'NONE',  ( 1.000000000000000000, -0.0000000000000000000, -0.0000000000000000000 ) ) ;
#125 = APPROVAL_STATUS ( 'not_yet_approved' ) ;
#126 = SECURITY_CLASSIFICATION ( '', '', #36 ) ;
#127 = CARTESIAN_POINT ( 'NONE',  ( -2.440944881889764300, 0.0000000000000000000, 0.0000000000000000000 ) ) ;
#128 = DIRECTION ( 'NONE',  ( 0.0000000000000000000, 0.0000000000000000000, -1.000000000000000000 ) ) ;
#129 = AXIS2_PLACEMENT_3D ( 'NONE', #195, #11, #128 ) ;
#130 = COORDINATED_UNIVERSAL_TIME_OFFSET ( 5, 0, .BEHIND. ) ;
#131 = FACE_OUTER_BOUND ( 'NONE', #140, .T. ) ;
#132 = FACE_OUTER_BOUND ( 'NONE', #159, .T. ) ;
#133 = CALENDAR_DATE ( 2017, 31, 7 ) ;
#134 =( NAMED_UNIT ( * ) SI_UNIT ( $, .STERADIAN. ) SOLID_ANGLE_UNIT ( ) );
#135 = FACE_OUTER_BOUND ( 'NONE', #46, .T. ) ;
#136 = DIRECTION ( 'NONE',  ( 1.000000000000000000, 0.0000000000000000000, 0.0000000000000000000 ) ) ;
#137 = PLANE ( 'NONE',  #129 ) ;
#138 = APPROVAL_PERSON_ORGANIZATION ( #75, #10, #90 ) ;
#139 = LOCAL_TIME ( 9, 50, 8.000000000000000000, #107 ) ;
#140 = EDGE_LOOP ( 'NONE', ( #249 ) ) ;
#141 = AXIS2_PLACEMENT_3D ( 'NONE', #194, #108, #179 ) ;
#142 = PERSON_AND_ORGANIZATION ( #163, #208 ) ;
#143 = CARTESIAN_POINT ( 'NONE',  ( 0.0000000000000000000, 1.968503937007874100, -4.821284857568425000E-016 ) ) ;
#144 = PERSON_AND_ORGANIZATION ( #163, #208 ) ;
#145 = ORIENTED_EDGE ( 'NONE', *, *, #197, .T. ) ;
#146 = AXIS2_PLACEMENT_3D ( 'NONE', #205, #117, #86 ) ;
#147 = FACE_BOUND ( 'NONE', #221, .T. ) ;
#148 = APPLICATION_CONTEXT ( 'configuration controlled 3d designs of mechanical parts and assemblies' ) ;
#149 = DIRECTION ( 'NONE',  ( 1.000000000000000000, 0.0000000000000000000, 0.0000000000000000000 ) ) ;
#150 = EDGE_CURVE ( 'NONE', #89, #89, #243, .T. ) ;
#151 = APPLICATION_CONTEXT ( 'configuration controlled 3d designs of mechanical parts and assemblies' ) ;
#152 = DIRECTION ( 'NONE',  ( 0.0000000000000000000, 0.0000000000000000000, 1.000000000000000000 ) ) ;
#153 = PERSON_AND_ORGANIZATION ( #163, #208 ) ;
#154 = CC_DESIGN_DATE_AND_TIME_ASSIGNMENT ( #103, #21, ( #126 ) ) ;
#155 = FACE_OUTER_BOUND ( 'NONE', #38, .T. ) ;
#156 = DIRECTION ( 'NONE',  ( 1.000000000000000000, 0.0000000000000000000, 0.0000000000000000000 ) ) ;
#157 = DATE_AND_TIME ( #133, #210 ) ;
#158 = DIRECTION ( 'NONE',  ( 0.0000000000000000000, 0.0000000000000000000, 1.000000000000000000 ) ) ;
#159 = EDGE_LOOP ( 'NONE', ( #28 ) ) ;
#160 = APPROVAL_STATUS ( 'not_yet_approved' ) ;
#161 = AXIS2_PLACEMENT_3D ( 'NONE', #127, #12, #158 ) ;
#162 = PLANE ( 'NONE',  #118 ) ;
#163 = PERSON ( 'UNSPECIFIED', 'UNSPECIFIED', 'UNSPECIFIED', ('UNSPECIFIED'), ('UNSPECIFIED'), ('UNSPECIFIED') ) ;
#164 = FACE_BOUND ( 'NONE', #83, .T. ) ;
#165 = LOCAL_TIME ( 9, 50, 8.000000000000000000, #44 ) ;
#166 = APPROVAL_PERSON_ORGANIZATION ( #27, #23, #217 ) ;
#167 = PRODUCT_DEFINITION_SHAPE ( 'NONE', 'NONE',  #58 ) ;
#168 = FACE_OUTER_BOUND ( 'NONE', #248, .T. ) ;
#169 = AXIS2_PLACEMENT_3D ( 'NONE', #51, #152, #207 ) ;
#170 = APPLICATION_PROTOCOL_DEFINITION ( 'international standard', 'config_control_design', 1994, #148 ) ;
#171 = COORDINATED_UNIVERSAL_TIME_OFFSET ( 5, 0, .BEHIND. ) ;
#172 = EDGE_LOOP ( 'NONE', ( #114 ) ) ;
#173 = CC_DESIGN_SECURITY_CLASSIFICATION ( #126, ( #226 ) ) ;
#174 = DIRECTION ( 'NONE',  ( 1.000000000000000000, 0.0000000000000000000, 0.0000000000000000000 ) ) ;
#175 = PLANE ( 'NONE',  #97 ) ;
#176 = FACE_OUTER_BOUND ( 'NONE', #8, .T. ) ;
#177 = AXIS2_PLACEMENT_3D ( 'NONE', #201, #124, #85 ) ;
#178 = ADVANCED_FACE ( 'NONE', ( #164, #96 ), #137, .T. ) ;
#179 = DIRECTION ( 'NONE',  ( 0.0000000000000000000, 0.0000000000000000000, -1.000000000000000000 ) ) ;
#180 = AXIS2_PLACEMENT_3D ( 'NONE', #206, #156, #115 ) ;
#181 = CARTESIAN_POINT ( 'NONE',  ( -3.149606299212598600, 0.0000000000000000000, 0.0000000000000000000 ) ) ;
#182 = CARTESIAN_POINT ( 'NONE',  ( -0.7480314960629921300, 0.0000000000000000000, 0.0000000000000000000 ) ) ;
#183 = CIRCLE ( 'NONE', #146, 1.771653543307086600 ) ;
#184 = CARTESIAN_POINT ( 'NONE',  ( -2.440944881889763900, 0.0000000000000000000, 0.0000000000000000000 ) ) ;
#185 = CARTESIAN_POINT ( 'NONE',  ( 0.0000000000000000000, 0.0000000000000000000, 0.0000000000000000000 ) ) ;
#186 = DIRECTION ( 'NONE',  ( 0.0000000000000000000, 0.0000000000000000000, 1.000000000000000000 ) ) ;
#187 = DATE_AND_TIME ( #53, #139 ) ;
#188 = EDGE_CURVE ( 'NONE', #99, #99, #183, .T. ) ;
#189 = VERTEX_POINT ( 'NONE', #213 ) ;
#190 = CYLINDRICAL_SURFACE ( 'NONE', #40, 1.771653543307086600 ) ;
#191 = EDGE_CURVE ( 'NONE', #245, #245, #35, .T. ) ;
#192 = DIRECTION ( 'NONE',  ( -1.000000000000000000, -0.0000000000000000000, -0.0000000000000000000 ) ) ;
#193 = AXIS2_PLACEMENT_3D ( 'NONE', #235, #9, #216 ) ;
#194 = CARTESIAN_POINT ( 'NONE',  ( -3.149606299212598600, 0.0000000000000000000, 0.0000000000000000000 ) ) ;
#195 = CARTESIAN_POINT ( 'NONE',  ( -2.440944881889763900, 2.785433070866142100, -6.822118073459292200E-016 ) ) ;
#196 = FACE_OUTER_BOUND ( 'NONE', #123, .T. ) ;
#197 = EDGE_CURVE ( 'NONE', #119, #119, #30, .T. ) ;
#198 = DIRECTION ( 'NONE',  ( -1.000000000000000000, -0.0000000000000000000, -0.0000000000000000000 ) ) ;
#199 = ADVANCED_FACE ( 'NONE', ( #88, #14 ), #162, .T. ) ;
#200 = AXIS2_PLACEMENT_3D ( 'NONE', #184, #192, #106 ) ;
#201 = CARTESIAN_POINT ( 'NONE',  ( -3.149606299212598600, 0.0000000000000000000, 0.0000000000000000000 ) ) ;
#202 = ADVANCED_FACE ( 'NONE', ( #176, #196 ), #190, .F. ) ;
#203 = PERSON_AND_ORGANIZATION ( #163, #208 ) ;
#204 = CC_DESIGN_PERSON_AND_ORGANIZATION_ASSIGNMENT ( #153, #62, ( #226 ) ) ;
#205 = CARTESIAN_POINT ( 'NONE',  ( 0.0000000000000000000, 0.0000000000000000000, 0.0000000000000000000 ) ) ;
#206 = CARTESIAN_POINT ( 'NONE',  ( -2.795275590551181500, 0.0000000000000000000, 0.0000000000000000000 ) ) ;
#207 = DIRECTION ( 'NONE',  ( 1.000000000000000000, 0.0000000000000000000, 0.0000000000000000000 ) ) ;
#208 = ORGANIZATION ( 'UNSPECIFIED', 'UNSPECIFIED', '' ) ;
#209 = CONICAL_SURFACE ( 'NONE', #98, 1.998956798893552600, 0.5235987755982968200 ) ;
#210 = LOCAL_TIME ( 9, 50, 8.000000000000000000, #130 ) ;
#211 = EDGE_LOOP ( 'NONE', ( #230 ) ) ;
#212 = CC_DESIGN_APPROVAL ( #1, ( #226 ) ) ;
#213 = CARTESIAN_POINT ( 'NONE',  ( -3.149606299212598600, 0.0000000000000000000, -3.110236220472441200 ) ) ;
#214 = FACE_OUTER_BOUND ( 'NONE', #172, .T. ) ;
#215 = CARTESIAN_POINT ( 'NONE',  ( -1.574803149606299300, 0.0000000000000000000, 0.0000000000000000000 ) ) ;
#216 = DIRECTION ( 'NONE',  ( 0.0000000000000000000, 0.0000000000000000000, 1.000000000000000000 ) ) ;
#217 = APPROVAL_ROLE ( '' ) ;
#218 = DIRECTION ( 'NONE',  ( -1.000000000000000000, -0.0000000000000000000, 0.0000000000000000000 ) ) ;
#219 = CC_DESIGN_APPROVAL ( #23, ( #58 ) ) ;
#220 = PRODUCT ( '581136040', '581136040', '', ( #223 ) ) ;
#221 = EDGE_LOOP ( 'NONE', ( #244 ) ) ;
#222 = ORIENTED_EDGE ( 'NONE', *, *, #17, .T. ) ;
#223 = MECHANICAL_CONTEXT ( 'NONE', #148, 'mechanical' ) ;
#224 = APPROVAL_STATUS ( 'not_yet_approved' ) ;
#225 = AXIS2_PLACEMENT_3D ( 'NONE', #68, #218, #232 ) ;
#226 = PRODUCT_DEFINITION_FORMATION_WITH_SPECIFIED_SOURCE ( 'ANY', '', #220, .NOT_KNOWN. ) ;
#227 = ADVANCED_BREP_SHAPE_REPRESENTATION ( '581136040', ( #231, #169 ), #50 ) ;
#228 = CIRCLE ( 'NONE', #200, 3.110236220472441200 ) ;
#229 = APPROVAL_DATE_TIME ( #236, #1 ) ;
#230 = ORIENTED_EDGE ( 'NONE', *, *, #52, .T. ) ;
#231 = MANIFOLD_SOLID_BREP ( '1', #54 ) ;
#232 = DIRECTION ( 'NONE',  ( 0.0000000000000000000, 0.0000000000000000000, 1.000000000000000000 ) ) ;
#233 = VERTEX_POINT ( 'NONE', #71 ) ;
#234 = APPROVAL_ROLE ( '' ) ;
#235 = CARTESIAN_POINT ( 'NONE',  ( -2.755905511811023600, 0.0000000000000000000, 0.0000000000000000000 ) ) ;
#236 = DATE_AND_TIME ( #64, #165 ) ;
#237 = VERTEX_POINT ( 'NONE', #20 ) ;
#238 = EDGE_LOOP ( 'NONE', ( #31 ) ) ;
#239 = DATE_AND_TIME ( #59, #34 ) ;
#240 = CARTESIAN_POINT ( 'NONE',  ( -2.755905511811023600, 0.0000000000000000000, 1.771653543307086600 ) ) ;
#241 = CC_DESIGN_PERSON_AND_ORGANIZATION_ASSIGNMENT ( #144, #87, ( #58 ) ) ;
#242 = DIRECTION ( 'NONE',  ( -1.000000000000000000, 0.0000000000000000000, 0.0000000000000000000 ) ) ;
#243 = CIRCLE ( 'NONE', #111, 2.165354330708661600 ) ;
#244 = ORIENTED_EDGE ( 'NONE', *, *, #191, .F. ) ;
#245 = VERTEX_POINT ( 'NONE', #240 ) ;
#246 = CARTESIAN_POINT ( 'NONE',  ( 0.0000000000000000000, 0.0000000000000000000, -2.165354330708661600 ) ) ;
#247 =( LENGTH_UNIT ( ) NAMED_UNIT ( * ) SI_UNIT ( $, .METRE. ) );
#248 = EDGE_LOOP ( 'NONE', ( #3 ) ) ;
#249 = ORIENTED_EDGE ( 'NONE', *, *, #17, .F. ) ;
#250 = SHAPE_DEFINITION_REPRESENTATION ( #167, #227 ) ;
#251 = CIRCLE ( 'NONE', #225, 2.460629921259842100 ) ;
#252 = CC_DESIGN_APPROVAL ( #10, ( #126 ) ) ;
ENDSEC;
END-ISO-10303-21;
