ISO-10303-21;
HEADER;
FILE_DESCRIPTION (( 'STEP AP203' ),
    '1' );
FILE_NAME ('581136030.STEP',
    '2017-07-31T13:44:00',
    ( '' ),
    ( '' ),
    'SwSTEP 2.0',
    'SolidWorks 2017',
    '' );
FILE_SCHEMA (( 'CONFIG_CONTROL_DESIGN' ));
ENDSEC;

DATA;
#1 = FACE_OUTER_BOUND ( 'NONE', #211, .T. ) ;
#2 = EDGE_CURVE ( 'NONE', #4, #4, #178, .T. ) ;
#3 = COORDINATED_UNIVERSAL_TIME_OFFSET ( 5, 0, .BEHIND. ) ;
#4 = VERTEX_POINT ( 'NONE', #208 ) ;
#5 = DIRECTION ( 'NONE',  ( 1.000000000000000000, -4.217257691473974800E-016, -4.057709578626070700E-016 ) ) ;
#6 = CC_DESIGN_PERSON_AND_ORGANIZATION_ASSIGNMENT ( #236, #109, ( #36 ) ) ;
#7 = ORIENTED_EDGE ( 'NONE', *, *, #244, .T. ) ;
#8 = ORIENTED_EDGE ( 'NONE', *, *, #102, .T. ) ;
#9 = PERSON_AND_ORGANIZATION ( #68, #136 ) ;
#10 = CARTESIAN_POINT ( 'NONE',  ( -3.149606299212601300, 0.0000000000000000000, 1.748382715945128500E-014 ) ) ;
#11 = CARTESIAN_POINT ( 'NONE',  ( 0.0000000000000000000, 1.610236220472447200, -2.404026234424551500E-014 ) ) ;
#12 = DIRECTION ( 'NONE',  ( 7.930164461608216100E-016, -1.000000000000000000, 1.249000902703294200E-015 ) ) ;
#13 = APPROVAL_PERSON_ORGANIZATION ( #174, #46, #204 ) ;
#14 = PRODUCT_RELATED_PRODUCT_CATEGORY ( 'detail', '', ( #138 ) ) ;
#15 = CIRCLE ( 'NONE', #158, 1.448818897637804000 ) ;
#16 = APPROVAL_STATUS ( 'not_yet_approved' ) ;
#17 = PLANE ( 'NONE',  #59 ) ;
#18 = DIRECTION ( 'NONE',  ( -6.167905692361941100E-016, 1.000000000000000000, -1.512678871051766500E-015 ) ) ;
#19 = PLANE ( 'NONE',  #72 ) ;
#20 = CONICAL_SURFACE ( 'NONE', #168, 2.066929133858279600, 0.3152146997507099300 ) ;
#21 = APPROVAL ( #16, 'UNSPECIFIED' ) ;
#22 = CIRCLE ( 'NONE', #156, 2.606299212598441400 ) ;
#23 = ORIENTED_EDGE ( 'NONE', *, *, #2, .F. ) ;
#24 = APPROVAL_PERSON_ORGANIZATION ( #131, #237, #145 ) ;
#25 = DIRECTION ( 'NONE',  ( -7.542275982507811800E-016, 1.000000000000000000, -1.249000902703294000E-015 ) ) ;
#26 = ADVANCED_FACE ( 'NONE', ( #150, #63 ), #20, .T. ) ;
#27 = CC_DESIGN_PERSON_AND_ORGANIZATION_ASSIGNMENT ( #228, #52, ( #210 ) ) ;
#28 = DIRECTION ( 'NONE',  ( -1.000000000000000000, 4.671920453939518400E-016, 4.057709578626071700E-016 ) ) ;
#29 = DIRECTION ( 'NONE',  ( 1.000000000000000000, -4.217257691473974800E-016, -4.057709578626070700E-016 ) ) ;
#30 = LENGTH_MEASURE_WITH_UNIT ( LENGTH_MEASURE( 0.02539999999999999900 ), #165 );
#31 = ADVANCED_FACE ( 'NONE', ( #77, #71 ), #223, .T. ) ;
#32 = EDGE_CURVE ( 'NONE', #86, #86, #22, .T. ) ;
#33 = APPROVAL_STATUS ( 'not_yet_approved' ) ;
#34 = CALENDAR_DATE ( 2017, 31, 7 ) ;
#35 = CARTESIAN_POINT ( 'NONE',  ( 0.0000000000000000000, 0.0000000000000000000, 0.0000000000000000000 ) ) ;
#36 = PRODUCT_DEFINITION ( 'UNKNOWN', '', #61, #193 ) ;
#37 =( CONVERSION_BASED_UNIT ( 'INCH', #30 ) LENGTH_UNIT ( ) NAMED_UNIT ( #82 ) );
#38 = CARTESIAN_POINT ( 'NONE',  ( -1.574803149606300600, 0.0000000000000000000, 1.748382715945128500E-014 ) ) ;
#39 = EDGE_LOOP ( 'NONE', ( #197 ) ) ;
#40 = AXIS2_PLACEMENT_3D ( 'NONE', #38, #149, #18 ) ;
#41 = UNCERTAINTY_MEASURE_WITH_UNIT (LENGTH_MEASURE( 1.000000000000000100E-005 ), #37, 'distance_accuracy_value', 'NONE');
#42 = EDGE_LOOP ( 'NONE', ( #23 ) ) ;
#43 = CONICAL_SURFACE ( 'NONE', #92, 1.737494032232615100, 0.5235987755982950400 ) ;
#44 = CARTESIAN_POINT ( 'NONE',  ( -2.480314960629919100, 2.336614173228355600, 8.741913579725642300E-015 ) ) ;
#45 = FACE_OUTER_BOUND ( 'NONE', #70, .T. ) ;
#46 = APPROVAL ( #91, 'UNSPECIFIED' ) ;
#47 = CARTESIAN_POINT ( 'NONE',  ( 0.0000000000000000000, 0.0000000000000000000, 0.0000000000000000000 ) ) ;
#48 = DATE_AND_TIME ( #233, #64 ) ;
#49 = LOCAL_TIME ( 9, 44, 0.0000000000000000000, #65 ) ;
#50 = CARTESIAN_POINT ( 'NONE',  ( -0.7874015748031503200, 0.0000000000000000000, 0.0000000000000000000 ) ) ;
#51 = CARTESIAN_POINT ( 'NONE',  ( -3.149606299212602600, 6.641350695234617300E-016, 1.812283654191208500E-014 ) ) ;
#52 = PERSON_AND_ORGANIZATION_ROLE ( 'classification_officer' ) ;
#53 = PERSON_AND_ORGANIZATION_ROLE ( 'design_owner' ) ;
#54 = ORIENTED_EDGE ( 'NONE', *, *, #244, .F. ) ;
#55 = CC_DESIGN_APPROVAL ( #237, ( #210 ) ) ;
#56 = CARTESIAN_POINT ( 'NONE',  ( -1.574803149606300600, 0.0000000000000000000, 1.748382715945128500E-014 ) ) ;
#57 = ORIENTED_EDGE ( 'NONE', *, *, #32, .F. ) ;
#58 = DATE_AND_TIME ( #34, #241 ) ;
#59 = AXIS2_PLACEMENT_3D ( 'NONE', #172, #94, #95 ) ;
#60 = EDGE_CURVE ( 'NONE', #209, #209, #189, .T. ) ;
#61 = PRODUCT_DEFINITION_FORMATION_WITH_SPECIFIED_SOURCE ( 'ANY', '', #138, .NOT_KNOWN. ) ;
#62 = VERTEX_POINT ( 'NONE', #229 ) ;
#63 = FACE_BOUND ( 'NONE', #161, .T. ) ;
#64 = LOCAL_TIME ( 9, 44, 0.0000000000000000000, #238 ) ;
#65 = COORDINATED_UNIVERSAL_TIME_OFFSET ( 5, 0, .BEHIND. ) ;
#66 = CARTESIAN_POINT ( 'NONE',  ( -2.814960629921255700, 0.0000000000000000000, 1.748382715945128500E-014 ) ) ;
#67 = DIRECTION ( 'NONE',  ( -7.709882115452429800E-016, 1.000000000000000000, -1.249000902703293600E-015 ) ) ;
#68 = PERSON ( 'UNSPECIFIED', 'UNSPECIFIED', 'UNSPECIFIED', ('UNSPECIFIED'), ('UNSPECIFIED'), ('UNSPECIFIED') ) ;
#69 = DIRECTION ( 'NONE',  ( 4.057709578626002700E-016, 1.221245327087659000E-015, -1.000000000000000000 ) ) ;
#70 = EDGE_LOOP ( 'NONE', ( #200 ) ) ;
#71 = FACE_OUTER_BOUND ( 'NONE', #39, .T. ) ;
#72 = AXIS2_PLACEMENT_3D ( 'NONE', #44, #195, #248 ) ;
#73 = PERSON_AND_ORGANIZATION_ROLE ( 'creator' ) ;
#74 = DIRECTION ( 'NONE',  ( 1.000000000000000000, 0.0000000000000000000, 0.0000000000000000000 ) ) ;
#75 = AXIS2_PLACEMENT_3D ( 'NONE', #35, #76, #74 ) ;
#76 = DIRECTION ( 'NONE',  ( 0.0000000000000000000, 0.0000000000000000000, 1.000000000000000000 ) ) ;
#77 = FACE_BOUND ( 'NONE', #132, .T. ) ;
#78 = EDGE_LOOP ( 'NONE', ( #226 ) ) ;
#79 = AXIS2_PLACEMENT_3D ( 'NONE', #185, #177, #125 ) ;
#80 = ADVANCED_BREP_SHAPE_REPRESENTATION ( '581136030', ( #114, #75 ), #155 ) ;
#81 = SHAPE_DEFINITION_REPRESENTATION ( #88, #80 ) ;
#82 = DIMENSIONAL_EXPONENTS ( 1.000000000000000000, 0.0000000000000000000, 0.0000000000000000000, 0.0000000000000000000, 0.0000000000000000000, 0.0000000000000000000, 0.0000000000000000000 ) ;
#83 = CC_DESIGN_PERSON_AND_ORGANIZATION_ASSIGNMENT ( #9, #73, ( #61 ) ) ;
#84 = EDGE_LOOP ( 'NONE', ( #169 ) ) ;
#85 = CARTESIAN_POINT ( 'NONE',  ( -2.649606299212586600, 4.532721849497562300E-016, 1.791995106298077400E-014 ) ) ;
#86 = VERTEX_POINT ( 'NONE', #187 ) ;
#87 = FACE_BOUND ( 'NONE', #157, .T. ) ;
#88 = PRODUCT_DEFINITION_SHAPE ( 'NONE', 'NONE',  #36 ) ;
#89 = ORIENTED_EDGE ( 'NONE', *, *, #118, .T. ) ;
#90 = DATE_AND_TIME ( #201, #227 ) ;
#91 = APPROVAL_STATUS ( 'not_yet_approved' ) ;
#92 = AXIS2_PLACEMENT_3D ( 'NONE', #127, #176, #101 ) ;
#93 = CARTESIAN_POINT ( 'NONE',  ( -1.574803149606301700, 1.771653543307098100, 1.480388427766664300E-014 ) ) ;
#94 = DIRECTION ( 'NONE',  ( -1.000000000000000000, 5.993614530874243600E-016, -4.057709578625995300E-016 ) ) ;
#95 = DIRECTION ( 'NONE',  ( -4.057709578626002700E-016, -1.221245327087659000E-015, 1.000000000000000000 ) ) ;
#96 = ORIENTED_EDGE ( 'NONE', *, *, #60, .T. ) ;
#97 = FACE_OUTER_BOUND ( 'NONE', #84, .T. ) ;
#98 = ORIENTED_EDGE ( 'NONE', *, *, #60, .F. ) ;
#99 = APPROVAL_DATE_TIME ( #90, #46 ) ;
#100 = CYLINDRICAL_SURFACE ( 'NONE', #212, 2.606299212598441400 ) ;
#101 = DIRECTION ( 'NONE',  ( -3.144584030776716300E-016, -1.000000000000000000, 0.0000000000000000000 ) ) ;
#102 = EDGE_CURVE ( 'NONE', #133, #133, #171, .T. ) ;
#103 = EDGE_CURVE ( 'NONE', #252, #252, #107, .T. ) ;
#104 = EDGE_CURVE ( 'NONE', #123, #123, #15, .T. ) ;
#105 = FACE_BOUND ( 'NONE', #181, .T. ) ;
#106 = DIRECTION ( 'NONE',  ( 1.000000000000000000, -4.217257691473974800E-016, -4.057709578626070700E-016 ) ) ;
#107 = CIRCLE ( 'NONE', #148, 1.771653543307097200 ) ;
#108 = ADVANCED_FACE ( 'NONE', ( #116, #117 ), #139, .T. ) ;
#109 = PERSON_AND_ORGANIZATION_ROLE ( 'creator' ) ;
#110 = APPLICATION_PROTOCOL_DEFINITION ( 'international standard', 'config_control_design', 1994, #205 ) ;
#111 = EDGE_LOOP ( 'NONE', ( #134 ) ) ;
#112 = CYLINDRICAL_SURFACE ( 'NONE', #234, 1.448818897637804000 ) ;
#113 = CARTESIAN_POINT ( 'NONE',  ( -1.125728135535828200E-015, 1.448818897637804000, -1.809576111003207800E-015 ) ) ;
#114 = MANIFOLD_SOLID_BREP ( '1', #190 ) ;
#115 = DIRECTION ( 'NONE',  ( 1.000000000000000000, -4.217257691473974800E-016, -4.057709578626070700E-016 ) ) ;
#116 = FACE_OUTER_BOUND ( 'NONE', #194, .T. ) ;
#117 = FACE_OUTER_BOUND ( 'NONE', #111, .T. ) ;
#118 = EDGE_CURVE ( 'NONE', #62, #62, #230, .T. ) ;
#119 = APPROVAL_PERSON_ORGANIZATION ( #151, #21, #245 ) ;
#120 = DIRECTION ( 'NONE',  ( -7.769971370274419700E-016, 1.000000000000000000, -1.249000902703293600E-015 ) ) ;
#121 = ADVANCED_FACE ( 'NONE', ( #198, #97 ), #43, .F. ) ;
#122 = DIRECTION ( 'NONE',  ( -1.000000000000000000, 4.217257691473974800E-016, 4.057709578626070700E-016 ) ) ;
#123 = VERTEX_POINT ( 'NONE', #113 ) ;
#124 = CALENDAR_DATE ( 2017, 31, 7 ) ;
#125 = DIRECTION ( 'NONE',  ( -8.385370276624997800E-016, 1.000000000000000000, -1.249000902703293600E-015 ) ) ;
#126 = CC_DESIGN_APPROVAL ( #21, ( #36 ) ) ;
#127 = CARTESIAN_POINT ( 'NONE',  ( -3.149606299212602600, 6.641350695234616300E-016, 1.812283654191208500E-014 ) ) ;
#128 = ADVANCED_FACE ( 'NONE', ( #1, #153 ), #100, .T. ) ;
#129 =( NAMED_UNIT ( * ) SI_UNIT ( $, .STERADIAN. ) SOLID_ANGLE_UNIT ( ) );
#130 = CARTESIAN_POINT ( 'NONE',  ( -2.480314960629917700, -2.066929133858279600, 2.006542351346401300E-014 ) ) ;
#131 = PERSON_AND_ORGANIZATION ( #68, #136 ) ;
#132 = EDGE_LOOP ( 'NONE', ( #216 ) ) ;
#133 = VERTEX_POINT ( 'NONE', #130 ) ;
#134 = ORIENTED_EDGE ( 'NONE', *, *, #103, .F. ) ;
#135 = FACE_OUTER_BOUND ( 'NONE', #221, .T. ) ;
#136 = ORGANIZATION ( 'UNSPECIFIED', 'UNSPECIFIED', '' ) ;
#137 = DIRECTION ( 'NONE',  ( 7.930164461608216100E-016, -1.000000000000000000, 1.249000902703294200E-015 ) ) ;
#138 = PRODUCT ( '581136030', '581136030', '', ( #184 ) ) ;
#139 = CYLINDRICAL_SURFACE ( 'NONE', #186, 1.771653543307097200 ) ;
#140 = DIRECTION ( 'NONE',  ( -1.000000000000000000, 4.671920453939518400E-016, 4.057709578626071700E-016 ) ) ;
#141 = FACE_OUTER_BOUND ( 'NONE', #42, .T. ) ;
#142 = AXIS2_PLACEMENT_3D ( 'NONE', #85, #202, #243 ) ;
#143 = DIRECTION ( 'NONE',  ( -8.385370276624997800E-016, 1.000000000000000000, -1.249000902703293600E-015 ) ) ;
#144 = DATE_AND_TIME ( #124, #49 ) ;
#145 = APPROVAL_ROLE ( '' ) ;
#146 = APPLICATION_PROTOCOL_DEFINITION ( 'international standard', 'config_control_design', 1994, #164 ) ;
#147 =( NAMED_UNIT ( * ) PLANE_ANGLE_UNIT ( ) SI_UNIT ( $, .RADIAN. ) );
#148 = AXIS2_PLACEMENT_3D ( 'NONE', #240, #106, #220 ) ;
#149 = DIRECTION ( 'NONE',  ( -1.000000000000000000, 4.217257691473974800E-016, 4.057709578626070700E-016 ) ) ;
#150 = FACE_OUTER_BOUND ( 'NONE', #192, .T. ) ;
#151 = PERSON_AND_ORGANIZATION ( #68, #136 ) ;
#152 = DATE_AND_TIME ( #191, #231 ) ;
#153 = FACE_OUTER_BOUND ( 'NONE', #78, .T. ) ;
#154 = AXIS2_PLACEMENT_3D ( 'NONE', #159, #28, #137 ) ;
#155 =( GEOMETRIC_REPRESENTATION_CONTEXT ( 3 ) GLOBAL_UNCERTAINTY_ASSIGNED_CONTEXT ( ( #41 ) ) GLOBAL_UNIT_ASSIGNED_CONTEXT ( ( #37, #147, #129 ) ) REPRESENTATION_CONTEXT ( 'NONE', 'WORKASPACE' ) );
#156 = AXIS2_PLACEMENT_3D ( 'NONE', #10, #122, #242 ) ;
#157 = EDGE_LOOP ( 'NONE', ( #8 ) ) ;
#158 = AXIS2_PLACEMENT_3D ( 'NONE', #47, #173, #120 ) ;
#159 = CARTESIAN_POINT ( 'NONE',  ( -2.480314960629919100, 0.0000000000000000000, 1.748382715945128500E-014 ) ) ;
#160 = CARTESIAN_POINT ( 'NONE',  ( -2.480314960629919100, 0.0000000000000000000, 1.748382715945128500E-014 ) ) ;
#161 = EDGE_LOOP ( 'NONE', ( #7 ) ) ;
#162 = DATE_TIME_ROLE ( 'classification_date' ) ;
#163 = AXIS2_PLACEMENT_3D ( 'NONE', #11, #203, #69 ) ;
#164 = APPLICATION_CONTEXT ( 'configuration controlled 3d designs of mechanical parts and assemblies' ) ;
#165 =( LENGTH_UNIT ( ) NAMED_UNIT ( * ) SI_UNIT ( $, .METRE. ) );
#166 = CARTESIAN_POINT ( 'NONE',  ( -2.649606299212587100, -1.448818897637794700, 1.791995106298077400E-014 ) ) ;
#167 = EDGE_LOOP ( 'NONE', ( #96 ) ) ;
#168 = AXIS2_PLACEMENT_3D ( 'NONE', #160, #140, #12 ) ;
#169 = ORIENTED_EDGE ( 'NONE', *, *, #118, .F. ) ;
#170 = AXIS2_PLACEMENT_3D ( 'NONE', #51, #219, #199 ) ;
#171 = CIRCLE ( 'NONE', #154, 2.066929133858279600 ) ;
#172 = CARTESIAN_POINT ( 'NONE',  ( -3.149606299212601300, 2.027559055118114200, 1.092739197465705300E-014 ) ) ;
#173 = DIRECTION ( 'NONE',  ( -1.000000000000000000, 4.217257691473974800E-016, 4.057709578626070700E-016 ) ) ;
#174 = PERSON_AND_ORGANIZATION ( #68, #136 ) ;
#175 = PERSON_AND_ORGANIZATION ( #68, #136 ) ;
#176 = DIRECTION ( 'NONE',  ( -1.000000000000000000, 4.217257691473972300E-016, 4.057709578626069300E-016 ) ) ;
#177 = DIRECTION ( 'NONE',  ( -1.000000000000000000, 4.217257691473974800E-016, 4.057709578626070700E-016 ) ) ;
#178 = CIRCLE ( 'NONE', #79, 2.606299212598441400 ) ;
#179 = CC_DESIGN_APPROVAL ( #46, ( #61 ) ) ;
#180 = ADVANCED_FACE ( 'NONE', ( #87, #141 ), #19, .T. ) ;
#181 = EDGE_LOOP ( 'NONE', ( #89 ) ) ;
#182 = SECURITY_CLASSIFICATION_LEVEL ( 'unclassified' ) ;
#183 = COORDINATED_UNIVERSAL_TIME_OFFSET ( 5, 0, .BEHIND. ) ;
#184 = MECHANICAL_CONTEXT ( 'NONE', #205, 'mechanical' ) ;
#185 = CARTESIAN_POINT ( 'NONE',  ( -2.480314960629928000, 0.0000000000000000000, 1.748382715945128500E-014 ) ) ;
#186 = AXIS2_PLACEMENT_3D ( 'NONE', #50, #29, #67 ) ;
#187 = CARTESIAN_POINT ( 'NONE',  ( -3.149606299212603500, 2.606299212598441400, 1.422855709020094700E-014 ) ) ;
#188 = CC_DESIGN_PERSON_AND_ORGANIZATION_ASSIGNMENT ( #175, #53, ( #138 ) ) ;
#189 = CIRCLE ( 'NONE', #142, 1.448818897637795400 ) ;
#190 = CLOSED_SHELL ( 'NONE', ( #218, #128, #215, #180, #31, #26, #108, #121 ) ) ;
#191 = CALENDAR_DATE ( 2017, 31, 7 ) ;
#192 = EDGE_LOOP ( 'NONE', ( #232 ) ) ;
#193 = DESIGN_CONTEXT ( 'detailed design', #164, 'design' ) ;
#194 = EDGE_LOOP ( 'NONE', ( #54 ) ) ;
#195 = DIRECTION ( 'NONE',  ( 1.000000000000000000, -5.993614530874243600E-016, 4.057709578625995300E-016 ) ) ;
#196 = CC_DESIGN_PERSON_AND_ORGANIZATION_ASSIGNMENT ( #250, #222, ( #61 ) ) ;
#197 = ORIENTED_EDGE ( 'NONE', *, *, #103, .T. ) ;
#198 = FACE_BOUND ( 'NONE', #214, .T. ) ;
#199 = DIRECTION ( 'NONE',  ( -6.289168061553432500E-016, -1.000000000000000000, 0.0000000000000000000 ) ) ;
#200 = ORIENTED_EDGE ( 'NONE', *, *, #104, .F. ) ;
#201 = CALENDAR_DATE ( 2017, 31, 7 ) ;
#202 = DIRECTION ( 'NONE',  ( -1.000000000000000000, 4.217257691473972300E-016, 4.057709578626069300E-016 ) ) ;
#203 = DIRECTION ( 'NONE',  ( 1.000000000000000000, -5.993614530874243600E-016, 4.057709578625995300E-016 ) ) ;
#204 = APPROVAL_ROLE ( '' ) ;
#205 = APPLICATION_CONTEXT ( 'configuration controlled 3d designs of mechanical parts and assemblies' ) ;
#206 = ORIENTED_EDGE ( 'NONE', *, *, #32, .T. ) ;
#207 = FACE_OUTER_BOUND ( 'NONE', #167, .T. ) ;
#208 = CARTESIAN_POINT ( 'NONE',  ( -2.480314960629930200, 2.606299212598441400, 1.422855709020094700E-014 ) ) ;
#209 = VERTEX_POINT ( 'NONE', #166 ) ;
#210 = SECURITY_CLASSIFICATION ( '', '', #182 ) ;
#211 = EDGE_LOOP ( 'NONE', ( #57 ) ) ;
#212 = AXIS2_PLACEMENT_3D ( 'NONE', #66, #5, #143 ) ;
#213 = APPROVAL_DATE_TIME ( #48, #21 ) ;
#214 = EDGE_LOOP ( 'NONE', ( #98 ) ) ;
#215 = ADVANCED_FACE ( 'NONE', ( #207, #45 ), #112, .F. ) ;
#216 = ORIENTED_EDGE ( 'NONE', *, *, #104, .T. ) ;
#217 = COORDINATED_UNIVERSAL_TIME_OFFSET ( 5, 0, .BEHIND. ) ;
#218 = ADVANCED_FACE ( 'NONE', ( #105, #135 ), #17, .T. ) ;
#219 = DIRECTION ( 'NONE',  ( 1.000000000000000000, -5.993614530874233800E-016, -4.057709578626069300E-016 ) ) ;
#220 = DIRECTION ( 'NONE',  ( -7.769971370274419700E-016, 1.000000000000000000, -1.249000902703293600E-015 ) ) ;
#221 = EDGE_LOOP ( 'NONE', ( #206 ) ) ;
#222 = PERSON_AND_ORGANIZATION_ROLE ( 'design_supplier' ) ;
#223 = PLANE ( 'NONE',  #163 ) ;
#224 = CC_DESIGN_DATE_AND_TIME_ASSIGNMENT ( #144, #162, ( #210 ) ) ;
#225 = DATE_TIME_ROLE ( 'creation_date' ) ;
#226 = ORIENTED_EDGE ( 'NONE', *, *, #2, .T. ) ;
#227 = LOCAL_TIME ( 9, 44, 0.0000000000000000000, #183 ) ;
#228 = PERSON_AND_ORGANIZATION ( #68, #136 ) ;
#229 = CARTESIAN_POINT ( 'NONE',  ( -3.149606299212603500, -1.737494032232614700, 1.812283654191208500E-014 ) ) ;
#230 = CIRCLE ( 'NONE', #170, 1.737494032232615100 ) ;
#231 = LOCAL_TIME ( 9, 44, 0.0000000000000000000, #217 ) ;
#232 = ORIENTED_EDGE ( 'NONE', *, *, #102, .F. ) ;
#233 = CALENDAR_DATE ( 2017, 31, 7 ) ;
#234 = AXIS2_PLACEMENT_3D ( 'NONE', #56, #115, #25 ) ;
#235 = APPROVAL_DATE_TIME ( #152, #237 ) ;
#236 = PERSON_AND_ORGANIZATION ( #68, #136 ) ;
#237 = APPROVAL ( #33, 'UNSPECIFIED' ) ;
#238 = COORDINATED_UNIVERSAL_TIME_OFFSET ( 5, 0, .BEHIND. ) ;
#239 = CIRCLE ( 'NONE', #40, 1.771653543307098100 ) ;
#240 = CARTESIAN_POINT ( 'NONE',  ( 0.0000000000000000000, 0.0000000000000000000, 0.0000000000000000000 ) ) ;
#241 = LOCAL_TIME ( 9, 44, 0.0000000000000000000, #3 ) ;
#242 = DIRECTION ( 'NONE',  ( -8.385370276624997800E-016, 1.000000000000000000, -1.249000902703293600E-015 ) ) ;
#243 = DIRECTION ( 'NONE',  ( -3.771137991253928600E-016, -1.000000000000000000, 0.0000000000000000000 ) ) ;
#244 = EDGE_CURVE ( 'NONE', #249, #249, #239, .T. ) ;
#245 = APPROVAL_ROLE ( '' ) ;
#246 = CC_DESIGN_DATE_AND_TIME_ASSIGNMENT ( #58, #225, ( #36 ) ) ;
#247 = CARTESIAN_POINT ( 'NONE',  ( -1.376569730954137800E-015, 1.771653543307097200, -2.212796874868053300E-015 ) ) ;
#248 = DIRECTION ( 'NONE',  ( 4.057709578626002700E-016, 1.221245327087659000E-015, -1.000000000000000000 ) ) ;
#249 = VERTEX_POINT ( 'NONE', #93 ) ;
#250 = PERSON_AND_ORGANIZATION ( #68, #136 ) ;
#251 = CC_DESIGN_SECURITY_CLASSIFICATION ( #210, ( #61 ) ) ;
#252 = VERTEX_POINT ( 'NONE', #247 ) ;
ENDSEC;
END-ISO-10303-21;
