ISO-10303-21;
HEADER;
FILE_DESCRIPTION (( 'STEP AP203' ),
    '1' );
FILE_NAME ('581138120.STEP',
    '2017-07-28T19:33:38',
    ( '' ),
    ( '' ),
    'SwSTEP 2.0',
    'SolidWorks 2017',
    '' );
FILE_SCHEMA (( 'CONFIG_CONTROL_DESIGN' ));
ENDSEC;

DATA;
#1 = AXIS2_PLACEMENT_3D ( 'NONE', #108, #228, #120 ) ;
#2 = CALENDAR_DATE ( 2017, 28, 7 ) ;
#3 = ORIENTED_EDGE ( 'NONE', *, *, #141, .F. ) ;
#4 = PERSON_AND_ORGANIZATION_ROLE ( 'creator' ) ;
#5 =( GEOMETRIC_REPRESENTATION_CONTEXT ( 3 ) GLOBAL_UNCERTAINTY_ASSIGNED_CONTEXT ( ( #68 ) ) GLOBAL_UNIT_ASSIGNED_CONTEXT ( ( #121, #170, #103 ) ) REPRESENTATION_CONTEXT ( 'NONE', 'WORKASPACE' ) );
#6 = LOCAL_TIME ( 15, 33, 38.00000000000000000, #308 ) ;
#7 = CARTESIAN_POINT ( 'NONE',  ( -45.33333333333333600, -1.578569724100938500E-014, 128.9000000000000100 ) ) ;
#8 = PERSON_AND_ORGANIZATION_ROLE ( 'design_supplier' ) ;
#9 = DIRECTION ( 'NONE',  ( 0.0000000000000000000, 0.0000000000000000000, -1.000000000000000000 ) ) ;
#10 = DIRECTION ( 'NONE',  ( 0.0000000000000000000, 0.0000000000000000000, -1.000000000000000000 ) ) ;
#11 = CARTESIAN_POINT ( 'NONE',  ( -112.6666666666666700, 4.531193156845206800E-014, -185.0000000000000000 ) ) ;
#12 = DIRECTION ( 'NONE',  ( 0.0000000000000000000, 1.000000000000000000, -6.123233995736766000E-017 ) ) ;
#13 = APPLICATION_PROTOCOL_DEFINITION ( 'international standard', 'config_control_design', 1994, #35 ) ;
#14 = ORIENTED_EDGE ( 'NONE', *, *, #307, .F. ) ;
#15 = DIRECTION ( 'NONE',  ( -1.000000000000000000, -0.0000000000000000000, 0.0000000000000000000 ) ) ;
#16 = AXIS2_PLACEMENT_3D ( 'NONE', #197, #294, #191 ) ;
#17 = DIRECTION ( 'NONE',  ( -1.000000000000000000, 0.0000000000000000000, 0.0000000000000000000 ) ) ;
#18 = CARTESIAN_POINT ( 'NONE',  ( -89.00000000000001400, 2.010461828600237900E-014, -164.1666666666666900 ) ) ;
#19 = CARTESIAN_POINT ( 'NONE',  ( -136.0000000000000000, -1.578569724100938200E-014, 128.9000000000000100 ) ) ;
#20 = AXIS2_PLACEMENT_3D ( 'NONE', #140, #195, #40 ) ;
#21 = MANIFOLD_SOLID_BREP ( 'AGRU_25012131511_PE_100_schwarz_Vorschweissbund_ANSI_315X28_6__SDR11__ISO_S_5_05.sldprt', #303 ) ;
#22 = ORIENTED_EDGE ( 'NONE', *, *, #32, .T. ) ;
#23 = PERSON_AND_ORGANIZATION ( #178, #83 ) ;
#24 = CARTESIAN_POINT ( 'NONE',  ( 0.0000000000000000000, 0.0000000000000000000, 0.0000000000000000000 ) ) ;
#25 = ORIENTED_EDGE ( 'NONE', *, *, #337, .T. ) ;
#26 = DIRECTION ( 'NONE',  ( 1.000000000000000000, 0.0000000000000000000, -0.0000000000000000000 ) ) ;
#27 = CARTESIAN_POINT ( 'NONE',  ( -101.0000000000000000, 0.0000000000000000000, 0.0000000000000000000 ) ) ;
#28 = CIRCLE ( 'NONE', #20, 157.5000000000000000 ) ;
#29 = DATE_AND_TIME ( #57, #316 ) ;
#30 = ORIENTED_EDGE ( 'NONE', *, *, #70, .T. ) ;
#31 = ORIENTED_EDGE ( 'NONE', *, *, #151, .T. ) ;
#32 = EDGE_CURVE ( 'NONE', #125, #134, #236, .T. ) ;
#33 = CARTESIAN_POINT ( 'NONE',  ( 0.0000000000000000000, -1.578569724100938200E-014, 128.9000000000000100 ) ) ;
#34 = APPROVAL_STATUS ( 'not_yet_approved' ) ;
#35 = APPLICATION_CONTEXT ( 'configuration controlled 3d designs of mechanical parts and assemblies' ) ;
#36 = ORIENTED_EDGE ( 'NONE', *, *, #312, .T. ) ;
#37 = CARTESIAN_POINT ( 'NONE',  ( -21.66666666666666800, -1.928818708657081100E-014, 157.5000000000000000 ) ) ;
#38 = CARTESIAN_POINT ( 'NONE',  ( -101.0000000000000000, 0.0000000000000000000, -167.5000000000000000 ) ) ;
#39 = EDGE_LOOP ( 'NONE', ( #361, #370 ) ) ;
#40 = DIRECTION ( 'NONE',  ( 0.0000000000000000000, 0.0000000000000000000, -1.000000000000000000 ) ) ;
#41 = COORDINATED_UNIVERSAL_TIME_OFFSET ( 5, 0, .BEHIND. ) ;
#42 = CARTESIAN_POINT ( 'NONE',  ( -90.66666666666667100, 0.0000000000000000000, -128.9000000000000100 ) ) ;
#43 = CC_DESIGN_PERSON_AND_ORGANIZATION_ASSIGNMENT ( #87, #304, ( #311 ) ) ;
#44 = DIRECTION ( 'NONE',  ( 0.0000000000000000000, 0.0000000000000000000, -1.000000000000000000 ) ) ;
#45 = APPROVAL ( #144, 'UNSPECIFIED' ) ;
#46 = APPLICATION_PROTOCOL_DEFINITION ( 'international standard', 'config_control_design', 1994, #314 ) ;
#47 = EDGE_LOOP ( 'NONE', ( #58, #273, #350, #277 ) ) ;
#48 = DIRECTION ( 'NONE',  ( 0.0000000000000000000, 0.0000000000000000000, -1.000000000000000000 ) ) ;
#49 = EDGE_CURVE ( 'NONE', #72, #223, #113, .T. ) ;
#50 = DIRECTION ( 'NONE',  ( 0.0000000000000000000, 1.000000000000000000, 6.123233995736766000E-017 ) ) ;
#51 = ORIENTED_EDGE ( 'NONE', *, *, #206, .F. ) ;
#52 = AXIS2_PLACEMENT_3D ( 'NONE', #180, #26, #44 ) ;
#53 = DIRECTION ( 'NONE',  ( 0.0000000000000000000, 0.0000000000000000000, -1.000000000000000000 ) ) ;
#54 = B_SPLINE_CURVE_WITH_KNOTS ( 'NONE', 3,
 ( #114, #243, #18, #38 ),
 .UNSPECIFIED., .F., .F.,
 ( 4, 4 ),
 ( 0.0000000000000000000, 37.36308338453881100 ),
 .UNSPECIFIED. ) ;
#55 = CIRCLE ( 'NONE', #269, 157.5000000000000000 ) ;
#56 = ORIENTED_EDGE ( 'NONE', *, *, #383, .T. ) ;
#57 = CALENDAR_DATE ( 2017, 28, 7 ) ;
#58 = ORIENTED_EDGE ( 'NONE', *, *, #151, .F. ) ;
#59 = DIRECTION ( 'NONE',  ( -1.000000000000000000, 0.0000000000000000000, 0.0000000000000000000 ) ) ;
#60 = ADVANCED_FACE ( 'NONE', ( #313 ), #267, .T. ) ;
#61 = COORDINATED_UNIVERSAL_TIME_OFFSET ( 5, 0, .BEHIND. ) ;
#62 = AXIS2_PLACEMENT_3D ( 'NONE', #24, #15, #12 ) ;
#63 = DIRECTION ( 'NONE',  ( 0.0000000000000000000, 1.000000000000000000, -6.123233995736767300E-017 ) ) ;
#64 = CYLINDRICAL_SURFACE ( 'NONE', #209, 157.5000000000000000 ) ;
#65 = ORIENTED_EDGE ( 'NONE', *, *, #231, .F. ) ;
#66 = CARTESIAN_POINT ( 'NONE',  ( -65.00000000000000000, -1.928818708657081400E-014, 157.5000000000000000 ) ) ;
#67 = CARTESIAN_POINT ( 'NONE',  ( -43.33333333333333600, 3.857637417314162800E-014, -157.5000000000000000 ) ) ;
#68 = UNCERTAINTY_MEASURE_WITH_UNIT (LENGTH_MEASURE( 1.000000000000000100E-005 ), #121, 'distance_accuracy_value', 'NONE');
#69 = DIRECTION ( 'NONE',  ( 0.0000000000000000000, 0.0000000000000000000, -1.000000000000000000 ) ) ;
#70 = EDGE_CURVE ( 'NONE', #309, #375, #88, .T. ) ;
#71 = PERSON_AND_ORGANIZATION ( #178, #83 ) ;
#72 = VERTEX_POINT ( 'NONE', #192 ) ;
#73 = PERSON_AND_ORGANIZATION ( #178, #83 ) ;
#74 = DIRECTION ( 'NONE',  ( 1.000000000000000000, 0.0000000000000000000, -0.0000000000000000000 ) ) ;
#75 = CARTESIAN_POINT ( 'NONE',  ( -65.00000000000000000, -1.928818708657081400E-014, 157.5000000000000000 ) ) ;
#76 = ADVANCED_FACE ( 'NONE', ( #156 ), #208, .T. ) ;
#77 = AXIS2_PLACEMENT_3D ( 'NONE', #27, #357, #9 ) ;
#78 = CYLINDRICAL_SURFACE ( 'NONE', #82, 185.0000000000000000 ) ;
#79 = FACE_BOUND ( 'NONE', #252, .T. ) ;
#80 = CARTESIAN_POINT ( 'NONE',  ( 0.0000000000000000000, 0.0000000000000000000, -157.5000000000000000 ) ) ;
#81 = ADVANCED_FACE ( 'NONE', ( #324 ), #64, .T. ) ;
#82 = AXIS2_PLACEMENT_3D ( 'NONE', #292, #249, #137 ) ;
#83 = ORGANIZATION ( 'UNSPECIFIED', 'UNSPECIFIED', '' ) ;
#84 = ORIENTED_EDGE ( 'NONE', *, *, #310, .T. ) ;
#85 = PERSON_AND_ORGANIZATION ( #178, #83 ) ;
#86 = CARTESIAN_POINT ( 'NONE',  ( 0.0000000000000000000, 0.0000000000000000000, -157.5000000000000000 ) ) ;
#87 = PERSON_AND_ORGANIZATION ( #178, #83 ) ;
#88 = CIRCLE ( 'NONE', #328, 157.5000000000000000 ) ;
#89 = CARTESIAN_POINT ( 'NONE',  ( 0.0000000000000000000, 0.0000000000000000000, -128.9000000000000100 ) ) ;
#90 = EDGE_CURVE ( 'NONE', #223, #72, #100, .T. ) ;
#91 = PRODUCT_DEFINITION ( 'UNKNOWN', '', #198, #381 ) ;
#92 = DATE_AND_TIME ( #94, #347 ) ;
#93 = ORIENTED_EDGE ( 'NONE', *, *, #141, .T. ) ;
#94 = CALENDAR_DATE ( 2017, 28, 7 ) ;
#95 = ADVANCED_FACE ( 'NONE', ( #166, #79 ), #200, .T. ) ;
#96 = CARTESIAN_POINT ( 'NONE',  ( 0.0000000000000000000, 0.0000000000000000000, 0.0000000000000000000 ) ) ;
#97 = CC_DESIGN_PERSON_AND_ORGANIZATION_ASSIGNMENT ( #218, #334, ( #91 ) ) ;
#98 = B_SPLINE_CURVE_WITH_KNOTS ( 'NONE', 3,
 ( #295, #37, #300, #107 ),
 .UNSPECIFIED., .F., .F.,
 ( 4, 4 ),
 ( 0.0000000000000000000, 65.00000000000000000 ),
 .UNSPECIFIED. ) ;
#99 = APPROVAL_PERSON_ORGANIZATION ( #379, #161, #102 ) ;
#100 = CIRCLE ( 'NONE', #77, 167.5000000000000000 ) ;
#101 = PRODUCT_DEFINITION_SHAPE ( 'NONE', 'NONE',  #91 ) ;
#102 = APPROVAL_ROLE ( '' ) ;
#103 =( NAMED_UNIT ( * ) SI_UNIT ( $, .STERADIAN. ) SOLID_ANGLE_UNIT ( ) );
#104 = ORIENTED_EDGE ( 'NONE', *, *, #49, .F. ) ;
#105 = CARTESIAN_POINT ( 'NONE',  ( 0.0000000000000000000, 0.0000000000000000000, 0.0000000000000000000 ) ) ;
#106 = CARTESIAN_POINT ( 'NONE',  ( -136.0000000000000000, 0.0000000000000000000, 0.0000000000000000000 ) ) ;
#107 = CARTESIAN_POINT ( 'NONE',  ( -65.00000000000000000, -1.928818708657081400E-014, 157.5000000000000000 ) ) ;
#108 = CARTESIAN_POINT ( 'NONE',  ( -136.0000000000000000, 0.0000000000000000000, 0.0000000000000000000 ) ) ;
#109 = CARTESIAN_POINT ( 'NONE',  ( -77.00000000000000000, -3.939280537257319600E-014, 160.8333333333333100 ) ) ;
#110 = ADVANCED_FACE ( 'NONE', ( #385 ), #210, .T. ) ;
#111 = ORIENTED_EDGE ( 'NONE', *, *, #90, .F. ) ;
#112 = DIRECTION ( 'NONE',  ( 0.0000000000000000000, 0.0000000000000000000, -1.000000000000000000 ) ) ;
#113 = CIRCLE ( 'NONE', #201, 167.5000000000000000 ) ;
#114 = CARTESIAN_POINT ( 'NONE',  ( -65.00000000000000000, 0.0000000000000000000, -157.5000000000000000 ) ) ;
#115 = CARTESIAN_POINT ( 'NONE',  ( -112.6666666666666700, -2.265596578422603100E-014, 185.0000000000000000 ) ) ;
#116 = EDGE_LOOP ( 'NONE', ( #261, #30 ) ) ;
#117 = DIRECTION ( 'NONE',  ( 0.0000000000000000000, 0.0000000000000000000, -1.000000000000000000 ) ) ;
#118 = ORIENTED_EDGE ( 'NONE', *, *, #231, .T. ) ;
#119 = DIRECTION ( 'NONE',  ( 0.0000000000000000000, 0.0000000000000000000, -1.000000000000000000 ) ) ;
#120 = DIRECTION ( 'NONE',  ( 0.0000000000000000000, 0.0000000000000000000, -1.000000000000000000 ) ) ;
#121 =( LENGTH_UNIT ( ) NAMED_UNIT ( * ) SI_UNIT ( .MILLI., .METRE. ) );
#122 = ADVANCED_FACE ( 'NONE', ( #374 ), #175, .T. ) ;
#123 = DATE_AND_TIME ( #262, #359 ) ;
#124 = COORDINATED_UNIVERSAL_TIME_OFFSET ( 5, 0, .BEHIND. ) ;
#125 = VERTEX_POINT ( 'NONE', #306 ) ;
#126 = DIRECTION ( 'NONE',  ( -1.000000000000000000, -0.0000000000000000000, 0.0000000000000000000 ) ) ;
#127 = SECURITY_CLASSIFICATION_LEVEL ( 'unclassified' ) ;
#128 = APPROVAL_DATE_TIME ( #123, #161 ) ;
#129 = VERTEX_POINT ( 'NONE', #33 ) ;
#130 = PRODUCT_RELATED_PRODUCT_CATEGORY ( 'detail', '', ( #311 ) ) ;
#131 = B_SPLINE_CURVE_WITH_KNOTS ( 'NONE', 3,
 ( #80, #376, #67, #259 ),
 .UNSPECIFIED., .F., .F.,
 ( 4, 4 ),
 ( 0.0000000000000000000, 65.00000000000000000 ),
 .UNSPECIFIED. ) ;
#132 = AXIS2_PLACEMENT_3D ( 'NONE', #321, #331, #48 ) ;
#133 = FACE_OUTER_BOUND ( 'NONE', #211, .T. ) ;
#134 = VERTEX_POINT ( 'NONE', #193 ) ;
#135 = AXIS2_PLACEMENT_3D ( 'NONE', #106, #338, #69 ) ;
#136 = DIRECTION ( 'NONE',  ( -0.0000000000000000000, 0.0000000000000000000, -1.000000000000000000 ) ) ;
#137 = DIRECTION ( 'NONE',  ( 0.0000000000000000000, -1.000000000000000000, -6.123233995736766000E-017 ) ) ;
#138 = ORIENTED_EDGE ( 'NONE', *, *, #307, .T. ) ;
#139 = CARTESIAN_POINT ( 'NONE',  ( -65.00000000000000000, 0.0000000000000000000, 0.0000000000000000000 ) ) ;
#140 = CARTESIAN_POINT ( 'NONE',  ( 0.0000000000000000000, 0.0000000000000000000, 0.0000000000000000000 ) ) ;
#141 = EDGE_CURVE ( 'NONE', #265, #345, #246, .T. ) ;
#142 = DIRECTION ( 'NONE',  ( 0.0000000000000000000, 0.0000000000000000000, 1.000000000000000000 ) ) ;
#143 = CARTESIAN_POINT ( 'NONE',  ( -101.0000000000000000, -2.265596578422603400E-014, 185.0000000000000000 ) ) ;
#144 = APPROVAL_STATUS ( 'not_yet_approved' ) ;
#145 = CARTESIAN_POINT ( 'NONE',  ( 0.0000000000000000000, 0.0000000000000000000, 0.0000000000000000000 ) ) ;
#146 = DIRECTION ( 'NONE',  ( 1.000000000000000000, 0.0000000000000000000, -0.0000000000000000000 ) ) ;
#147 = AXIS2_PLACEMENT_3D ( 'NONE', #362, #146, #352 ) ;
#148 = FACE_OUTER_BOUND ( 'NONE', #116, .T. ) ;
#149 = ORIENTED_EDGE ( 'NONE', *, *, #32, .F. ) ;
#150 = CARTESIAN_POINT ( 'NONE',  ( -101.0000000000000000, 0.0000000000000000000, 0.0000000000000000000 ) ) ;
#151 = EDGE_CURVE ( 'NONE', #340, #240, #55, .T. ) ;
#152 = VERTEX_POINT ( 'NONE', #264 ) ;
#153 = DATE_TIME_ROLE ( 'creation_date' ) ;
#154 = AXIS2_PLACEMENT_3D ( 'NONE', #322, #351, #136 ) ;
#155 = LOCAL_TIME ( 15, 33, 38.00000000000000000, #284 ) ;
#156 = FACE_OUTER_BOUND ( 'NONE', #285, .T. ) ;
#157 = CARTESIAN_POINT ( 'NONE',  ( -136.0000000000000000, -2.265596578422603400E-014, 185.0000000000000000 ) ) ;
#158 = ORIENTED_EDGE ( 'NONE', *, *, #282, .F. ) ;
#159 = ADVANCED_FACE ( 'NONE', ( #255, #368 ), #227, .T. ) ;
#160 = ORIENTED_EDGE ( 'NONE', *, *, #348, .F. ) ;
#161 = APPROVAL ( #34, 'UNSPECIFIED' ) ;
#162 = ADVANCED_FACE ( 'NONE', ( #133 ), #78, .T. ) ;
#163 = APPROVAL_DATE_TIME ( #297, #286 ) ;
#164 = DIRECTION ( 'NONE',  ( -1.000000000000000000, -0.0000000000000000000, 0.0000000000000000000 ) ) ;
#165 = CIRCLE ( 'NONE', #320, 128.9000000000000100 ) ;
#166 = FACE_OUTER_BOUND ( 'NONE', #177, .T. ) ;
#167 = CC_DESIGN_APPROVAL ( #161, ( #91 ) ) ;
#168 = CARTESIAN_POINT ( 'NONE',  ( -101.0000000000000000, 0.0000000000000000000, 0.0000000000000000000 ) ) ;
#169 = EDGE_LOOP ( 'NONE', ( #93, #274 ) ) ;
#170 =( NAMED_UNIT ( * ) PLANE_ANGLE_UNIT ( ) SI_UNIT ( $, .RADIAN. ) );
#171 = CARTESIAN_POINT ( 'NONE',  ( 0.0000000000000000000, -1.928818708657081400E-014, 157.5000000000000000 ) ) ;
#172 = CARTESIAN_POINT ( 'NONE',  ( 0.0000000000000000000, 0.0000000000000000000, 0.0000000000000000000 ) ) ;
#173 = AXIS2_PLACEMENT_3D ( 'NONE', #150, #287, #112 ) ;
#174 = CARTESIAN_POINT ( 'NONE',  ( -101.0000000000000000, 0.0000000000000000000, 167.5000000000000300 ) ) ;
#175 = CONICAL_SURFACE ( 'NONE', #16, 157.5000000000000000, 0.2709468503384209700 ) ;
#176 = EDGE_CURVE ( 'NONE', #152, #134, #213, .T. ) ;
#177 = EDGE_LOOP ( 'NONE', ( #36, #138 ) ) ;
#178 = PERSON ( 'UNSPECIFIED', 'UNSPECIFIED', 'UNSPECIFIED', ('UNSPECIFIED'), ('UNSPECIFIED'), ('UNSPECIFIED') ) ;
#179 = AXIS2_PLACEMENT_3D ( 'NONE', #199, #242, #53 ) ;
#180 = CARTESIAN_POINT ( 'NONE',  ( -136.0000000000000000, 0.0000000000000000000, 0.0000000000000000000 ) ) ;
#181 = CARTESIAN_POINT ( 'NONE',  ( 0.0000000000000000000, 0.0000000000000000000, 0.0000000000000000000 ) ) ;
#182 = VERTEX_POINT ( 'NONE', #225 ) ;
#183 = ADVANCED_FACE ( 'NONE', ( #148, #323 ), #260, .T. ) ;
#184 = ORIENTED_EDGE ( 'NONE', *, *, #312, .F. ) ;
#185 = DIRECTION ( 'NONE',  ( 0.0000000000000000000, 0.0000000000000000000, -1.000000000000000000 ) ) ;
#186 = CARTESIAN_POINT ( 'NONE',  ( -101.0000000000000000, 0.0000000000000000000, -167.5000000000000000 ) ) ;
#187 = CYLINDRICAL_SURFACE ( 'NONE', #325, 128.9000000000000100 ) ;
#188 = CIRCLE ( 'NONE', #173, 185.0000000000000000 ) ;
#189 = B_SPLINE_CURVE_WITH_KNOTS ( 'NONE', 3,
 ( #75, #109, #258, #174 ),
 .UNSPECIFIED., .F., .F.,
 ( 4, 4 ),
 ( 0.0000000000000000000, 37.36308338453881100 ),
 .UNSPECIFIED. ) ;
#190 = EDGE_LOOP ( 'NONE', ( #22, #207, #14, #118 ) ) ;
#191 = DIRECTION ( 'NONE',  ( 0.0000000000000000000, -1.000000000000000000, 6.123233995736766000E-017 ) ) ;
#192 = CARTESIAN_POINT ( 'NONE',  ( -101.0000000000000000, 0.0000000000000000000, 167.5000000000000300 ) ) ;
#193 = CARTESIAN_POINT ( 'NONE',  ( -136.0000000000000000, 0.0000000000000000000, -185.0000000000000000 ) ) ;
#194 = FACE_OUTER_BOUND ( 'NONE', #318, .T. ) ;
#195 = DIRECTION ( 'NONE',  ( 1.000000000000000000, 0.0000000000000000000, -0.0000000000000000000 ) ) ;
#196 = ORIENTED_EDGE ( 'NONE', *, *, #226, .T. ) ;
#197 = CARTESIAN_POINT ( 'NONE',  ( -65.00000000000000000, 0.0000000000000000000, 0.0000000000000000000 ) ) ;
#198 = PRODUCT_DEFINITION_FORMATION_WITH_SPECIFIED_SOURCE ( 'ANY', '', #311, .NOT_KNOWN. ) ;
#199 = CARTESIAN_POINT ( 'NONE',  ( -101.0000000000000000, 0.0000000000000000000, 0.0000000000000000000 ) ) ;
#200 = PLANE ( 'NONE',  #154 ) ;
#201 = AXIS2_PLACEMENT_3D ( 'NONE', #168, #329, #117 ) ;
#202 = CARTESIAN_POINT ( 'NONE',  ( 0.0000000000000000000, 0.0000000000000000000, 0.0000000000000000000 ) ) ;
#203 = VERTEX_POINT ( 'NONE', #386 ) ;
#204 = CARTESIAN_POINT ( 'NONE',  ( 0.0000000000000000000, 0.0000000000000000000, 0.0000000000000000000 ) ) ;
#205 = DIRECTION ( 'NONE',  ( 0.0000000000000000000, -1.000000000000000000, -6.123233995736766000E-017 ) ) ;
#206 = EDGE_CURVE ( 'NONE', #345, #265, #298, .T. ) ;
#207 = ORIENTED_EDGE ( 'NONE', *, *, #176, .F. ) ;
#208 = CYLINDRICAL_SURFACE ( 'NONE', #62, 157.5000000000000000 ) ;
#209 = AXIS2_PLACEMENT_3D ( 'NONE', #172, #17, #205 ) ;
#210 = CYLINDRICAL_SURFACE ( 'NONE', #363, 185.0000000000000000 ) ;
#211 = EDGE_LOOP ( 'NONE', ( #184, #279, #293, #65 ) ) ;
#212 = AXIS2_PLACEMENT_3D ( 'NONE', #315, #327, #235 ) ;
#213 = B_SPLINE_CURVE_WITH_KNOTS ( 'NONE', 3,
 ( #270, #11, #263, #346 ),
 .UNSPECIFIED., .F., .F.,
 ( 4, 4 ),
 ( 101.0000000000000000, 136.0000000000000000 ),
 .UNSPECIFIED. ) ;
#214 = CARTESIAN_POINT ( 'NONE',  ( -136.0000000000000000, 0.0000000000000000000, -128.9000000000000100 ) ) ;
#215 = DIRECTION ( 'NONE',  ( 1.000000000000000000, 0.0000000000000000000, -0.0000000000000000000 ) ) ;
#216 = B_SPLINE_CURVE_WITH_KNOTS ( 'NONE', 3,
 ( #257, #7, #254, #268 ),
 .UNSPECIFIED., .F., .F.,
 ( 4, 4 ),
 ( 0.0000000000000000000, 136.0000000000000000 ),
 .UNSPECIFIED. ) ;
#217 = AXIS2_PLACEMENT_3D ( 'NONE', #145, #256, #237 ) ;
#218 = PERSON_AND_ORGANIZATION ( #178, #83 ) ;
#219 = ORIENTED_EDGE ( 'NONE', *, *, #229, .T. ) ;
#220 = EDGE_LOOP ( 'NONE', ( #373, #149 ) ) ;
#221 = B_SPLINE_CURVE_WITH_KNOTS ( 'NONE', 3,
 ( #89, #238, #42, #214 ),
 .UNSPECIFIED., .F., .F.,
 ( 4, 4 ),
 ( 0.0000000000000000000, 136.0000000000000000 ),
 .UNSPECIFIED. ) ;
#222 = APPROVAL_PERSON_ORGANIZATION ( #319, #286, #378 ) ;
#223 = VERTEX_POINT ( 'NONE', #186 ) ;
#224 = CIRCLE ( 'NONE', #132, 157.5000000000000000 ) ;
#225 = CARTESIAN_POINT ( 'NONE',  ( 0.0000000000000000000, 0.0000000000000000000, -128.9000000000000100 ) ) ;
#226 = EDGE_CURVE ( 'NONE', #182, #129, #165, .T. ) ;
#227 = PLANE ( 'NONE',  #212 ) ;
#228 = DIRECTION ( 'NONE',  ( 1.000000000000000000, 0.0000000000000000000, -0.0000000000000000000 ) ) ;
#229 = EDGE_CURVE ( 'NONE', #309, #240, #98, .T. ) ;
#230 = ORIENTED_EDGE ( 'NONE', *, *, #310, .F. ) ;
#231 = EDGE_CURVE ( 'NONE', #203, #125, #369, .T. ) ;
#232 = CARTESIAN_POINT ( 'NONE',  ( -124.3333333333333600, -2.265596578422603100E-014, 185.0000000000000000 ) ) ;
#233 = APPROVAL_ROLE ( '' ) ;
#234 = APPROVAL_PERSON_ORGANIZATION ( #73, #45, #233 ) ;
#235 = DIRECTION ( 'NONE',  ( 0.0000000000000000000, 0.0000000000000000000, 1.000000000000000000 ) ) ;
#236 = CIRCLE ( 'NONE', #147, 185.0000000000000000 ) ;
#237 = DIRECTION ( 'NONE',  ( 0.0000000000000000000, -1.000000000000000000, -6.123233995736767300E-017 ) ) ;
#238 = CARTESIAN_POINT ( 'NONE',  ( -45.33333333333333600, 0.0000000000000000000, -128.9000000000000100 ) ) ;
#239 = AXIS2_PLACEMENT_3D ( 'NONE', #139, #59, #50 ) ;
#240 = VERTEX_POINT ( 'NONE', #66 ) ;
#241 = DIRECTION ( 'NONE',  ( 1.000000000000000000, 0.0000000000000000000, 0.0000000000000000000 ) ) ;
#242 = DIRECTION ( 'NONE',  ( 1.000000000000000000, 0.0000000000000000000, -0.0000000000000000000 ) ) ;
#243 = CARTESIAN_POINT ( 'NONE',  ( -77.00000000000000000, 1.969640268628659500E-014, -160.8333333333333100 ) ) ;
#244 = CIRCLE ( 'NONE', #248, 128.9000000000000100 ) ;
#245 = DIRECTION ( 'NONE',  ( -0.0000000000000000000, 0.0000000000000000000, -1.000000000000000000 ) ) ;
#246 = CIRCLE ( 'NONE', #135, 128.9000000000000100 ) ;
#247 = CYLINDRICAL_SURFACE ( 'NONE', #217, 128.9000000000000100 ) ;
#248 = AXIS2_PLACEMENT_3D ( 'NONE', #105, #276, #185 ) ;
#249 = DIRECTION ( 'NONE',  ( -1.000000000000000000, 0.0000000000000000000, 0.0000000000000000000 ) ) ;
#250 = MECHANICAL_CONTEXT ( 'NONE', #35, 'mechanical' ) ;
#251 = ORIENTED_EDGE ( 'NONE', *, *, #229, .F. ) ;
#252 = EDGE_LOOP ( 'NONE', ( #111, #104 ) ) ;
#253 = DATE_TIME_ROLE ( 'classification_date' ) ;
#254 = CARTESIAN_POINT ( 'NONE',  ( -90.66666666666667100, -1.578569724100938500E-014, 128.9000000000000100 ) ) ;
#255 = FACE_BOUND ( 'NONE', #169, .T. ) ;
#256 = DIRECTION ( 'NONE',  ( -1.000000000000000000, 0.0000000000000000000, 0.0000000000000000000 ) ) ;
#257 = CARTESIAN_POINT ( 'NONE',  ( 0.0000000000000000000, -1.578569724100938200E-014, 128.9000000000000100 ) ) ;
#258 = CARTESIAN_POINT ( 'NONE',  ( -89.00000000000001400, -4.020923657200476400E-014, 164.1666666666666900 ) ) ;
#259 = CARTESIAN_POINT ( 'NONE',  ( -65.00000000000000000, 0.0000000000000000000, -157.5000000000000000 ) ) ;
#260 = PLANE ( 'NONE',  #344 ) ;
#261 = ORIENTED_EDGE ( 'NONE', *, *, #301, .T. ) ;
#262 = CALENDAR_DATE ( 2017, 28, 7 ) ;
#263 = CARTESIAN_POINT ( 'NONE',  ( -124.3333333333333600, 4.531193156845206800E-014, -185.0000000000000000 ) ) ;
#264 = CARTESIAN_POINT ( 'NONE',  ( -101.0000000000000000, 0.0000000000000000000, -185.0000000000000000 ) ) ;
#265 = VERTEX_POINT ( 'NONE', #367 ) ;
#266 = CC_DESIGN_APPROVAL ( #45, ( #198 ) ) ;
#267 = CONICAL_SURFACE ( 'NONE', #239, 157.5000000000000000, 0.2709468503384209700 ) ;
#268 = CARTESIAN_POINT ( 'NONE',  ( -136.0000000000000000, -1.578569724100938200E-014, 128.9000000000000100 ) ) ;
#269 = AXIS2_PLACEMENT_3D ( 'NONE', #355, #275, #119 ) ;
#270 = CARTESIAN_POINT ( 'NONE',  ( -101.0000000000000000, 0.0000000000000000000, -185.0000000000000000 ) ) ;
#271 = DIRECTION ( 'NONE',  ( 0.0000000000000000000, 1.000000000000000000, -6.123233995736766000E-017 ) ) ;
#272 = DATE_AND_TIME ( #2, #6 ) ;
#273 = ORIENTED_EDGE ( 'NONE', *, *, #348, .T. ) ;
#274 = ORIENTED_EDGE ( 'NONE', *, *, #206, .T. ) ;
#275 = DIRECTION ( 'NONE',  ( 1.000000000000000000, 0.0000000000000000000, -0.0000000000000000000 ) ) ;
#276 = DIRECTION ( 'NONE',  ( 1.000000000000000000, 0.0000000000000000000, -0.0000000000000000000 ) ) ;
#277 = ORIENTED_EDGE ( 'NONE', *, *, #278, .F. ) ;
#278 = EDGE_CURVE ( 'NONE', #240, #72, #189, .T. ) ;
#279 = ORIENTED_EDGE ( 'NONE', *, *, #176, .T. ) ;
#280 = SHAPE_DEFINITION_REPRESENTATION ( #101, #360 ) ;
#281 = CC_DESIGN_SECURITY_CLASSIFICATION ( #290, ( #198 ) ) ;
#282 = EDGE_CURVE ( 'NONE', #375, #340, #131, .T. ) ;
#283 = APPROVAL_STATUS ( 'not_yet_approved' ) ;
#284 = COORDINATED_UNIVERSAL_TIME_OFFSET ( 5, 0, .BEHIND. ) ;
#285 = EDGE_LOOP ( 'NONE', ( #380, #158, #299, #219 ) ) ;
#286 = APPROVAL ( #283, 'UNSPECIFIED' ) ;
#287 = DIRECTION ( 'NONE',  ( 1.000000000000000000, 0.0000000000000000000, -0.0000000000000000000 ) ) ;
#288 = FACE_OUTER_BOUND ( 'NONE', #330, .T. ) ;
#289 = ORIENTED_EDGE ( 'NONE', *, *, #383, .F. ) ;
#290 = SECURITY_CLASSIFICATION ( '', '', #127 ) ;
#291 = ADVANCED_FACE ( 'NONE', ( #288 ), #187, .F. ) ;
#292 = CARTESIAN_POINT ( 'NONE',  ( 0.0000000000000000000, 0.0000000000000000000, 0.0000000000000000000 ) ) ;
#293 = ORIENTED_EDGE ( 'NONE', *, *, #302, .T. ) ;
#294 = DIRECTION ( 'NONE',  ( -1.000000000000000000, 0.0000000000000000000, 0.0000000000000000000 ) ) ;
#295 = CARTESIAN_POINT ( 'NONE',  ( 0.0000000000000000000, -1.928818708657081400E-014, 157.5000000000000000 ) ) ;
#296 = AXIS2_PLACEMENT_3D ( 'NONE', #204, #142, #241 ) ;
#297 = DATE_AND_TIME ( #366, #155 ) ;
#298 = CIRCLE ( 'NONE', #52, 128.9000000000000100 ) ;
#299 = ORIENTED_EDGE ( 'NONE', *, *, #70, .F. ) ;
#300 = CARTESIAN_POINT ( 'NONE',  ( -43.33333333333333600, -1.928818708657081100E-014, 157.5000000000000000 ) ) ;
#301 = EDGE_CURVE ( 'NONE', #375, #309, #28, .T. ) ;
#302 = EDGE_CURVE ( 'NONE', #134, #125, #358, .T. ) ;
#303 = CLOSED_SHELL ( 'NONE', ( #110, #162, #159, #291, #387, #183, #76, #81, #122, #60, #95 ) ) ;
#304 = PERSON_AND_ORGANIZATION_ROLE ( 'design_owner' ) ;
#305 = EDGE_LOOP ( 'NONE', ( #332, #160, #326, #353 ) ) ;
#306 = CARTESIAN_POINT ( 'NONE',  ( -136.0000000000000000, -2.265596578422603400E-014, 185.0000000000000000 ) ) ;
#307 = EDGE_CURVE ( 'NONE', #203, #152, #384, .T. ) ;
#308 = COORDINATED_UNIVERSAL_TIME_OFFSET ( 5, 0, .BEHIND. ) ;
#309 = VERTEX_POINT ( 'NONE', #171 ) ;
#310 = EDGE_CURVE ( 'NONE', #182, #265, #221, .T. ) ;
#311 = PRODUCT ( '581138120', '581138120', '', ( #250 ) ) ;
#312 = EDGE_CURVE ( 'NONE', #152, #203, #188, .T. ) ;
#313 = FACE_OUTER_BOUND ( 'NONE', #305, .T. ) ;
#314 = APPLICATION_CONTEXT ( 'configuration controlled 3d designs of mechanical parts and assemblies' ) ;
#315 = CARTESIAN_POINT ( 'NONE',  ( -136.0000000000000000, 185.0000000000000000, 0.0000000000000000000 ) ) ;
#316 = LOCAL_TIME ( 15, 33, 38.00000000000000000, #61 ) ;
#317 = CARTESIAN_POINT ( 'NONE',  ( 0.0000000000000000000, 0.0000000000000000000, 0.0000000000000000000 ) ) ;
#318 = EDGE_LOOP ( 'NONE', ( #196, #56, #3, #230 ) ) ;
#319 = PERSON_AND_ORGANIZATION ( #178, #83 ) ;
#320 = AXIS2_PLACEMENT_3D ( 'NONE', #181, #215, #343 ) ;
#321 = CARTESIAN_POINT ( 'NONE',  ( -65.00000000000000000, 0.0000000000000000000, 0.0000000000000000000 ) ) ;
#322 = CARTESIAN_POINT ( 'NONE',  ( -101.0000000000000000, 167.5000000000000000, 0.0000000000000000000 ) ) ;
#323 = FACE_BOUND ( 'NONE', #39, .T. ) ;
#324 = FACE_OUTER_BOUND ( 'NONE', #335, .T. ) ;
#325 = AXIS2_PLACEMENT_3D ( 'NONE', #96, #164, #63 ) ;
#326 = ORIENTED_EDGE ( 'NONE', *, *, #336, .F. ) ;
#327 = DIRECTION ( 'NONE',  ( -1.000000000000000000, 0.0000000000000000000, 0.0000000000000000000 ) ) ;
#328 = AXIS2_PLACEMENT_3D ( 'NONE', #202, #349, #10 ) ;
#329 = DIRECTION ( 'NONE',  ( 1.000000000000000000, 0.0000000000000000000, -0.0000000000000000000 ) ) ;
#330 = EDGE_LOOP ( 'NONE', ( #51, #289, #25, #84 ) ) ;
#331 = DIRECTION ( 'NONE',  ( 1.000000000000000000, 0.0000000000000000000, -0.0000000000000000000 ) ) ;
#332 = ORIENTED_EDGE ( 'NONE', *, *, #49, .T. ) ;
#333 = CC_DESIGN_PERSON_AND_ORGANIZATION_ASSIGNMENT ( #23, #342, ( #290 ) ) ;
#334 = PERSON_AND_ORGANIZATION_ROLE ( 'creator' ) ;
#335 = EDGE_LOOP ( 'NONE', ( #364, #341, #31, #251 ) ) ;
#336 = EDGE_CURVE ( 'NONE', #240, #340, #224, .T. ) ;
#337 = EDGE_CURVE ( 'NONE', #129, #182, #244, .T. ) ;
#338 = DIRECTION ( 'NONE',  ( 1.000000000000000000, 0.0000000000000000000, -0.0000000000000000000 ) ) ;
#339 = CC_DESIGN_PERSON_AND_ORGANIZATION_ASSIGNMENT ( #85, #4, ( #198 ) ) ;
#340 = VERTEX_POINT ( 'NONE', #372 ) ;
#341 = ORIENTED_EDGE ( 'NONE', *, *, #282, .T. ) ;
#342 = PERSON_AND_ORGANIZATION_ROLE ( 'classification_officer' ) ;
#343 = DIRECTION ( 'NONE',  ( 0.0000000000000000000, 0.0000000000000000000, -1.000000000000000000 ) ) ;
#344 = AXIS2_PLACEMENT_3D ( 'NONE', #371, #74, #245 ) ;
#345 = VERTEX_POINT ( 'NONE', #19 ) ;
#346 = CARTESIAN_POINT ( 'NONE',  ( -136.0000000000000000, 0.0000000000000000000, -185.0000000000000000 ) ) ;
#347 = LOCAL_TIME ( 15, 33, 38.00000000000000000, #41 ) ;
#348 = EDGE_CURVE ( 'NONE', #340, #223, #54, .T. ) ;
#349 = DIRECTION ( 'NONE',  ( 1.000000000000000000, 0.0000000000000000000, -0.0000000000000000000 ) ) ;
#350 = ORIENTED_EDGE ( 'NONE', *, *, #90, .T. ) ;
#351 = DIRECTION ( 'NONE',  ( 1.000000000000000000, 0.0000000000000000000, -0.0000000000000000000 ) ) ;
#352 = DIRECTION ( 'NONE',  ( 0.0000000000000000000, 0.0000000000000000000, -1.000000000000000000 ) ) ;
#353 = ORIENTED_EDGE ( 'NONE', *, *, #278, .T. ) ;
#354 = APPROVAL_DATE_TIME ( #272, #45 ) ;
#355 = CARTESIAN_POINT ( 'NONE',  ( -65.00000000000000000, 0.0000000000000000000, 0.0000000000000000000 ) ) ;
#356 = CC_DESIGN_APPROVAL ( #286, ( #290 ) ) ;
#357 = DIRECTION ( 'NONE',  ( 1.000000000000000000, 0.0000000000000000000, -0.0000000000000000000 ) ) ;
#358 = CIRCLE ( 'NONE', #1, 185.0000000000000000 ) ;
#359 = LOCAL_TIME ( 15, 33, 38.00000000000000000, #124 ) ;
#360 = ADVANCED_BREP_SHAPE_REPRESENTATION ( '581138120', ( #21, #296 ), #5 ) ;
#361 = ORIENTED_EDGE ( 'NONE', *, *, #226, .F. ) ;
#362 = CARTESIAN_POINT ( 'NONE',  ( -136.0000000000000000, 0.0000000000000000000, 0.0000000000000000000 ) ) ;
#363 = AXIS2_PLACEMENT_3D ( 'NONE', #317, #126, #271 ) ;
#364 = ORIENTED_EDGE ( 'NONE', *, *, #301, .F. ) ;
#365 = CC_DESIGN_PERSON_AND_ORGANIZATION_ASSIGNMENT ( #71, #8, ( #198 ) ) ;
#366 = CALENDAR_DATE ( 2017, 28, 7 ) ;
#367 = CARTESIAN_POINT ( 'NONE',  ( -136.0000000000000000, 0.0000000000000000000, -128.9000000000000100 ) ) ;
#368 = FACE_OUTER_BOUND ( 'NONE', #220, .T. ) ;
#369 = B_SPLINE_CURVE_WITH_KNOTS ( 'NONE', 3,
 ( #143, #115, #232, #157 ),
 .UNSPECIFIED., .F., .F.,
 ( 4, 4 ),
 ( 101.0000000000000000, 136.0000000000000000 ),
 .UNSPECIFIED. ) ;
#370 = ORIENTED_EDGE ( 'NONE', *, *, #337, .F. ) ;
#371 = CARTESIAN_POINT ( 'NONE',  ( 0.0000000000000000000, 128.9000000000000100, 0.0000000000000000000 ) ) ;
#372 = CARTESIAN_POINT ( 'NONE',  ( -65.00000000000000000, 0.0000000000000000000, -157.5000000000000000 ) ) ;
#373 = ORIENTED_EDGE ( 'NONE', *, *, #302, .F. ) ;
#374 = FACE_OUTER_BOUND ( 'NONE', #47, .T. ) ;
#375 = VERTEX_POINT ( 'NONE', #86 ) ;
#376 = CARTESIAN_POINT ( 'NONE',  ( -21.66666666666666800, 3.857637417314162800E-014, -157.5000000000000000 ) ) ;
#377 = CC_DESIGN_DATE_AND_TIME_ASSIGNMENT ( #29, #153, ( #91 ) ) ;
#378 = APPROVAL_ROLE ( '' ) ;
#379 = PERSON_AND_ORGANIZATION ( #178, #83 ) ;
#380 = ORIENTED_EDGE ( 'NONE', *, *, #336, .T. ) ;
#381 = DESIGN_CONTEXT ( 'detailed design', #314, 'design' ) ;
#382 = CC_DESIGN_DATE_AND_TIME_ASSIGNMENT ( #92, #253, ( #290 ) ) ;
#383 = EDGE_CURVE ( 'NONE', #129, #345, #216, .T. ) ;
#384 = CIRCLE ( 'NONE', #179, 185.0000000000000000 ) ;
#385 = FACE_OUTER_BOUND ( 'NONE', #190, .T. ) ;
#386 = CARTESIAN_POINT ( 'NONE',  ( -101.0000000000000000, -2.265596578422603400E-014, 185.0000000000000000 ) ) ;
#387 = ADVANCED_FACE ( 'NONE', ( #194 ), #247, .F. ) ;
ENDSEC;
END-ISO-10303-21;
