ISO-10303-21;
HEADER;
FILE_DESCRIPTION (( 'STEP AP203' ),
    '1' );
FILE_NAME ('581138100.STEP',
    '2017-07-28T19:27:57',
    ( '' ),
    ( '' ),
    'SwSTEP 2.0',
    'SolidWorks 2017',
    '' );
FILE_SCHEMA (( 'CONFIG_CONTROL_DESIGN' ));
ENDSEC;

DATA;
#1 = VERTEX_POINT ( 'NONE', #245 ) ;
#2 = APPROVAL ( #152, 'UNSPECIFIED' ) ;
#3 = ORIENTED_EDGE ( 'NONE', *, *, #307, .T. ) ;
#4 = LOCAL_TIME ( 15, 27, 57.00000000000000000, #236 ) ;
#5 = DESIGN_CONTEXT ( 'detailed design', #263, 'design' ) ;
#6 = PERSON_AND_ORGANIZATION ( #10, #235 ) ;
#7 = AXIS2_PLACEMENT_3D ( 'NONE', #321, #286, #131 ) ;
#8 = CARTESIAN_POINT ( 'NONE',  ( -95.00000000000000000, 0.0000000000000000000, -160.0000000000000000 ) ) ;
#9 = ORIENTED_EDGE ( 'NONE', *, *, #106, .F. ) ;
#10 = PERSON ( 'UNSPECIFIED', 'UNSPECIFIED', 'UNSPECIFIED', ('UNSPECIFIED'), ('UNSPECIFIED'), ('UNSPECIFIED') ) ;
#11 = CARTESIAN_POINT ( 'NONE',  ( -86.66666666666667100, -1.252813675527742300E-014, 102.3000000000000000 ) ) ;
#12 = EDGE_CURVE ( 'NONE', #52, #144, #305, .T. ) ;
#13 = ADVANCED_FACE ( 'NONE', ( #357 ), #366, .T. ) ;
#14 = ORIENTED_EDGE ( 'NONE', *, *, #325, .T. ) ;
#15 = ORIENTED_EDGE ( 'NONE', *, *, #178, .F. ) ;
#16 = CARTESIAN_POINT ( 'NONE',  ( -118.3333333333333400, 3.918869757271530400E-014, -160.0000000000000000 ) ) ;
#17 = CIRCLE ( 'NONE', #303, 125.0000000000000000 ) ;
#18 = CARTESIAN_POINT ( 'NONE',  ( -58.00000000000000000, 0.0000000000000000000, -125.0000000000000000 ) ) ;
#19 = FACE_OUTER_BOUND ( 'NONE', #251, .T. ) ;
#20 = PERSON_AND_ORGANIZATION ( #10, #235 ) ;
#21 = CARTESIAN_POINT ( 'NONE',  ( 0.0000000000000000000, 0.0000000000000000000, 0.0000000000000000000 ) ) ;
#22 = AXIS2_PLACEMENT_3D ( 'NONE', #109, #100, #45 ) ;
#23 = CALENDAR_DATE ( 2017, 28, 7 ) ;
#24 = COORDINATED_UNIVERSAL_TIME_OFFSET ( 5, 0, .BEHIND. ) ;
#25 = EDGE_CURVE ( 'NONE', #373, #32, #365, .T. ) ;
#26 = CARTESIAN_POINT ( 'NONE',  ( -130.0000000000000000, 0.0000000000000000000, 0.0000000000000000000 ) ) ;
#27 = ORIENTED_EDGE ( 'NONE', *, *, #307, .F. ) ;
#28 = AXIS2_PLACEMENT_3D ( 'NONE', #21, #265, #88 ) ;
#29 = CARTESIAN_POINT ( 'NONE',  ( -95.00000000000000000, 0.0000000000000000000, -160.0000000000000000 ) ) ;
#30 = CARTESIAN_POINT ( 'NONE',  ( -130.0000000000000000, 0.0000000000000000000, -160.0000000000000000 ) ) ;
#31 = CC_DESIGN_SECURITY_CLASSIFICATION ( #206, ( #213 ) ) ;
#32 = VERTEX_POINT ( 'NONE', #344 ) ;
#33 = CARTESIAN_POINT ( 'NONE',  ( -82.66666666666667100, -3.347367917669432400E-014, 136.6666666666666900 ) ) ;
#34 = CARTESIAN_POINT ( 'NONE',  ( -118.3333333333333400, -1.959434878635764900E-014, 160.0000000000000000 ) ) ;
#35 = FACE_OUTER_BOUND ( 'NONE', #40, .T. ) ;
#36 = DIRECTION ( 'NONE',  ( 1.000000000000000000, 0.0000000000000000000, -0.0000000000000000000 ) ) ;
#37 = PERSON_AND_ORGANIZATION ( #10, #235 ) ;
#38 = FACE_BOUND ( 'NONE', #134, .T. ) ;
#39 = EDGE_CURVE ( 'NONE', #52, #87, #176, .T. ) ;
#40 = EDGE_LOOP ( 'NONE', ( #233, #3, #91, #216 ) ) ;
#41 = APPLICATION_PROTOCOL_DEFINITION ( 'international standard', 'config_control_design', 1994, #263 ) ;
#42 = ORIENTED_EDGE ( 'NONE', *, *, #39, .T. ) ;
#43 = CARTESIAN_POINT ( 'NONE',  ( -70.33333333333332900, -3.204492457768907500E-014, 130.8333333333333400 ) ) ;
#44 = FACE_OUTER_BOUND ( 'NONE', #246, .T. ) ;
#45 = DIRECTION ( 'NONE',  ( 0.0000000000000000000, 0.0000000000000000000, -1.000000000000000000 ) ) ;
#46 = CIRCLE ( 'NONE', #238, 160.0000000000000000 ) ;
#47 = VERTEX_POINT ( 'NONE', #80 ) ;
#48 = AXIS2_PLACEMENT_3D ( 'NONE', #116, #136, #51 ) ;
#49 = EDGE_CURVE ( 'NONE', #32, #373, #98, .T. ) ;
#50 = CARTESIAN_POINT ( 'NONE',  ( 0.0000000000000000000, 0.0000000000000000000, 0.0000000000000000000 ) ) ;
#51 = DIRECTION ( 'NONE',  ( -0.0000000000000000000, 0.0000000000000000000, -1.000000000000000000 ) ) ;
#52 = VERTEX_POINT ( 'NONE', #331 ) ;
#53 = DIRECTION ( 'NONE',  ( 1.000000000000000000, 0.0000000000000000000, -0.0000000000000000000 ) ) ;
#54 = CARTESIAN_POINT ( 'NONE',  ( 0.0000000000000000000, 0.0000000000000000000, -125.0000000000000000 ) ) ;
#55 = ORIENTED_EDGE ( 'NONE', *, *, #25, .F. ) ;
#56 = EDGE_CURVE ( 'NONE', #319, #87, #367, .T. ) ;
#57 = CARTESIAN_POINT ( 'NONE',  ( -95.00000000000000000, 0.0000000000000000000, 0.0000000000000000000 ) ) ;
#58 = ADVANCED_FACE ( 'NONE', ( #127 ), #183, .F. ) ;
#59 = AXIS2_PLACEMENT_3D ( 'NONE', #220, #270, #291 ) ;
#60 = CARTESIAN_POINT ( 'NONE',  ( 0.0000000000000000000, 0.0000000000000000000, 0.0000000000000000000 ) ) ;
#61 = B_SPLINE_CURVE_WITH_KNOTS ( 'NONE', 3,
 ( #166, #82, #65, #198 ),
 .UNSPECIFIED., .F., .F.,
 ( 4, 4 ),
 ( 0.0000000000000000000, 58.00000000000000000 ),
 .UNSPECIFIED. ) ;
#62 = LOCAL_TIME ( 15, 27, 57.00000000000000000, #24 ) ;
#63 = AXIS2_PLACEMENT_3D ( 'NONE', #269, #78, #185 ) ;
#64 = DATE_AND_TIME ( #23, #349 ) ;
#65 = CARTESIAN_POINT ( 'NONE',  ( -38.66666666666667100, -1.530808498934191200E-014, 125.0000000000000000 ) ) ;
#66 = PLANE ( 'NONE',  #380 ) ;
#67 = APPROVAL_PERSON_ORGANIZATION ( #128, #293, #121 ) ;
#68 = CYLINDRICAL_SURFACE ( 'NONE', #264, 160.0000000000000000 ) ;
#69 = ADVANCED_FACE ( 'NONE', ( #200, #189 ), #322, .T. ) ;
#70 = EDGE_LOOP ( 'NONE', ( #42, #347, #351, #191 ) ) ;
#71 = APPROVAL_ROLE ( '' ) ;
#72 = CYLINDRICAL_SURFACE ( 'NONE', #257, 125.0000000000000000 ) ;
#73 = ORIENTED_EDGE ( 'NONE', *, *, #348, .F. ) ;
#74 = DIRECTION ( 'NONE',  ( 1.000000000000000000, 0.0000000000000000000, -0.0000000000000000000 ) ) ;
#75 = AXIS2_PLACEMENT_3D ( 'NONE', #60, #239, #147 ) ;
#76 = ORIENTED_EDGE ( 'NONE', *, *, #85, .T. ) ;
#77 = VERTEX_POINT ( 'NONE', #151 ) ;
#78 = DIRECTION ( 'NONE',  ( 1.000000000000000000, 0.0000000000000000000, -0.0000000000000000000 ) ) ;
#79 = AXIS2_PLACEMENT_3D ( 'NONE', #193, #74, #374 ) ;
#80 = CARTESIAN_POINT ( 'NONE',  ( -130.0000000000000000, 0.0000000000000000000, -102.3000000000000000 ) ) ;
#81 = AXIS2_PLACEMENT_3D ( 'NONE', #360, #249, #362 ) ;
#82 = CARTESIAN_POINT ( 'NONE',  ( -19.33333333333333200, -1.530808498934191200E-014, 125.0000000000000000 ) ) ;
#83 = CC_DESIGN_PERSON_AND_ORGANIZATION_ASSIGNMENT ( #6, #162, ( #206 ) ) ;
#84 = PERSON_AND_ORGANIZATION ( #10, #235 ) ;
#85 = EDGE_CURVE ( 'NONE', #144, #197, #138, .T. ) ;
#86 = PERSON_AND_ORGANIZATION ( #10, #235 ) ;
#87 = VERTEX_POINT ( 'NONE', #339 ) ;
#88 = DIRECTION ( 'NONE',  ( 0.0000000000000000000, 0.0000000000000000000, -1.000000000000000000 ) ) ;
#89 = DIRECTION ( 'NONE',  ( 0.0000000000000000000, 1.000000000000000000, 6.123233995736766000E-017 ) ) ;
#90 = ORIENTED_EDGE ( 'NONE', *, *, #132, .T. ) ;
#91 = ORIENTED_EDGE ( 'NONE', *, *, #368, .T. ) ;
#92 = ADVANCED_FACE ( 'NONE', ( #35 ), #308, .T. ) ;
#93 = CYLINDRICAL_SURFACE ( 'NONE', #363, 102.3000000000000000 ) ;
#94 = DIRECTION ( 'NONE',  ( 0.0000000000000000000, 0.0000000000000000000, -1.000000000000000000 ) ) ;
#95 = EDGE_LOOP ( 'NONE', ( #223, #248 ) ) ;
#96 = AXIS2_PLACEMENT_3D ( 'NONE', #340, #320, #310 ) ;
#97 = APPLICATION_PROTOCOL_DEFINITION ( 'international standard', 'config_control_design', 1994, #323 ) ;
#98 = CIRCLE ( 'NONE', #217, 160.0000000000000000 ) ;
#99 = EDGE_LOOP ( 'NONE', ( #73, #276 ) ) ;
#100 = DIRECTION ( 'NONE',  ( 1.000000000000000000, 0.0000000000000000000, -0.0000000000000000000 ) ) ;
#101 = CIRCLE ( 'NONE', #81, 102.3000000000000000 ) ;
#102 = AXIS2_PLACEMENT_3D ( 'NONE', #173, #190, #139 ) ;
#103 = ADVANCED_FACE ( 'NONE', ( #313 ), #72, .T. ) ;
#104 = VERTEX_POINT ( 'NONE', #376 ) ;
#105 = CARTESIAN_POINT ( 'NONE',  ( -95.00000000000000000, 0.0000000000000000000, -142.5000000000000000 ) ) ;
#106 = EDGE_CURVE ( 'NONE', #255, #47, #370, .T. ) ;
#107 = CALENDAR_DATE ( 2017, 28, 7 ) ;
#108 = FACE_OUTER_BOUND ( 'NONE', #95, .T. ) ;
#109 = CARTESIAN_POINT ( 'NONE',  ( 0.0000000000000000000, 0.0000000000000000000, 0.0000000000000000000 ) ) ;
#110 = ORIENTED_EDGE ( 'NONE', *, *, #49, .T. ) ;
#111 = ORIENTED_EDGE ( 'NONE', *, *, #345, .F. ) ;
#112 = ORIENTED_EDGE ( 'NONE', *, *, #210, .F. ) ;
#113 = MANIFOLD_SOLID_BREP ( 'AGRU_25012125011_PE_100_schwarz_Vorschweissbund_ANSI_250X22_7__SDR11__ISO_S_5_05.sldprt', #227 ) ;
#114 = DIRECTION ( 'NONE',  ( 1.000000000000000000, 0.0000000000000000000, 0.0000000000000000000 ) ) ;
#115 = AXIS2_PLACEMENT_3D ( 'NONE', #253, #159, #129 ) ;
#116 = CARTESIAN_POINT ( 'NONE',  ( 0.0000000000000000000, 102.3000000000000000, 0.0000000000000000000 ) ) ;
#117 = DIRECTION ( 'NONE',  ( 0.0000000000000000000, -1.000000000000000000, 6.123233995736766000E-017 ) ) ;
#118 = DIRECTION ( 'NONE',  ( -1.000000000000000000, -0.0000000000000000000, 0.0000000000000000000 ) ) ;
#119 = ORIENTED_EDGE ( 'NONE', *, *, #178, .T. ) ;
#120 = CONICAL_SURFACE ( 'NONE', #122, 125.0000000000000000, 0.4417931655174440200 ) ;
#121 = APPROVAL_ROLE ( '' ) ;
#122 = AXIS2_PLACEMENT_3D ( 'NONE', #266, #175, #89 ) ;
#123 = DIRECTION ( 'NONE',  ( 1.000000000000000000, 0.0000000000000000000, -0.0000000000000000000 ) ) ;
#124 = CIRCLE ( 'NONE', #63, 142.5000000000000000 ) ;
#125 = ORIENTED_EDGE ( 'NONE', *, *, #348, .T. ) ;
#126 = CARTESIAN_POINT ( 'NONE',  ( 0.0000000000000000000, 0.0000000000000000000, -102.3000000000000000 ) ) ;
#127 = FACE_OUTER_BOUND ( 'NONE', #324, .T. ) ;
#128 = PERSON_AND_ORGANIZATION ( #10, #235 ) ;
#129 = DIRECTION ( 'NONE',  ( 0.0000000000000000000, 0.0000000000000000000, -1.000000000000000000 ) ) ;
#130 = CC_DESIGN_PERSON_AND_ORGANIZATION_ASSIGNMENT ( #86, #229, ( #213 ) ) ;
#131 = DIRECTION ( 'NONE',  ( 0.0000000000000000000, 0.0000000000000000000, 1.000000000000000000 ) ) ;
#132 = EDGE_CURVE ( 'NONE', #87, #52, #17, .T. ) ;
#133 = APPROVAL_DATE_TIME ( #384, #293 ) ;
#134 = EDGE_LOOP ( 'NONE', ( #386, #300 ) ) ;
#135 = CARTESIAN_POINT ( 'NONE',  ( -95.00000000000000000, 0.0000000000000000000, -142.5000000000000000 ) ) ;
#136 = DIRECTION ( 'NONE',  ( 1.000000000000000000, 0.0000000000000000000, -0.0000000000000000000 ) ) ;
#137 = PRODUCT_RELATED_PRODUCT_CATEGORY ( 'detail', '', ( #260 ) ) ;
#138 = CIRCLE ( 'NONE', #102, 142.5000000000000000 ) ;
#139 = DIRECTION ( 'NONE',  ( 0.0000000000000000000, 0.0000000000000000000, -1.000000000000000000 ) ) ;
#140 = AXIS2_PLACEMENT_3D ( 'NONE', #145, #240, #204 ) ;
#141 = CALENDAR_DATE ( 2017, 28, 7 ) ;
#142 = COORDINATED_UNIVERSAL_TIME_OFFSET ( 5, 0, .BEHIND. ) ;
#143 = EDGE_CURVE ( 'NONE', #158, #47, #297, .T. ) ;
#144 = VERTEX_POINT ( 'NONE', #328 ) ;
#145 = CARTESIAN_POINT ( 'NONE',  ( 0.0000000000000000000, 0.0000000000000000000, 0.0000000000000000000 ) ) ;
#146 = ORIENTED_EDGE ( 'NONE', *, *, #254, .T. ) ;
#147 = DIRECTION ( 'NONE',  ( 0.0000000000000000000, 1.000000000000000000, -6.123233995736766000E-017 ) ) ;
#148 = CARTESIAN_POINT ( 'NONE',  ( -94.99999999999998600, 0.0000000000000000000, 142.5000000000000000 ) ) ;
#149 = CARTESIAN_POINT ( 'NONE',  ( -58.00000000000000000, 0.0000000000000000000, 0.0000000000000000000 ) ) ;
#150 = FACE_OUTER_BOUND ( 'NONE', #221, .T. ) ;
#151 = CARTESIAN_POINT ( 'NONE',  ( 0.0000000000000000000, -1.252813675527742300E-014, 102.3000000000000000 ) ) ;
#152 = APPROVAL_STATUS ( 'not_yet_approved' ) ;
#153 = ORIENTED_EDGE ( 'NONE', *, *, #56, .T. ) ;
#154 = ORIENTED_EDGE ( 'NONE', *, *, #345, .T. ) ;
#155 = CARTESIAN_POINT ( 'NONE',  ( -58.00000000000000000, 0.0000000000000000000, 0.0000000000000000000 ) ) ;
#156 = CARTESIAN_POINT ( 'NONE',  ( -130.0000000000000000, 0.0000000000000000000, -102.3000000000000000 ) ) ;
#157 = COORDINATED_UNIVERSAL_TIME_OFFSET ( 5, 0, .BEHIND. ) ;
#158 = VERTEX_POINT ( 'NONE', #211 ) ;
#159 = DIRECTION ( 'NONE',  ( 1.000000000000000000, 0.0000000000000000000, -0.0000000000000000000 ) ) ;
#160 = ORIENTED_EDGE ( 'NONE', *, *, #202, .T. ) ;
#161 = CC_DESIGN_APPROVAL ( #293, ( #271 ) ) ;
#162 = PERSON_AND_ORGANIZATION_ROLE ( 'classification_officer' ) ;
#163 = ORIENTED_EDGE ( 'NONE', *, *, #338, .F. ) ;
#164 =( LENGTH_UNIT ( ) NAMED_UNIT ( * ) SI_UNIT ( .MILLI., .METRE. ) );
#165 = LOCAL_TIME ( 15, 27, 57.00000000000000000, #207 ) ;
#166 = CARTESIAN_POINT ( 'NONE',  ( 0.0000000000000000000, -1.530808498934191600E-014, 125.0000000000000000 ) ) ;
#167 = ADVANCED_FACE ( 'NONE', ( #247, #292 ), #66, .T. ) ;
#168 = CARTESIAN_POINT ( 'NONE',  ( -95.00000000000000000, 142.5000000000000000, 0.0000000000000000000 ) ) ;
#169 = DIRECTION ( 'NONE',  ( 1.000000000000000000, 0.0000000000000000000, -0.0000000000000000000 ) ) ;
#170 = DIRECTION ( 'NONE',  ( -1.000000000000000000, 0.0000000000000000000, 0.0000000000000000000 ) ) ;
#171 = ADVANCED_FACE ( 'NONE', ( #44 ), #68, .T. ) ;
#172 = ORIENTED_EDGE ( 'NONE', *, *, #85, .F. ) ;
#173 = CARTESIAN_POINT ( 'NONE',  ( -95.00000000000000000, 0.0000000000000000000, 0.0000000000000000000 ) ) ;
#174 = CC_DESIGN_DATE_AND_TIME_ASSIGNMENT ( #237, #280, ( #271 ) ) ;
#175 = DIRECTION ( 'NONE',  ( -1.000000000000000000, 0.0000000000000000000, 0.0000000000000000000 ) ) ;
#176 = CIRCLE ( 'NONE', #385, 125.0000000000000000 ) ;
#177 = PERSON_AND_ORGANIZATION ( #10, #235 ) ;
#178 = EDGE_CURVE ( 'NONE', #77, #255, #261, .T. ) ;
#179 = ORIENTED_EDGE ( 'NONE', *, *, #368, .F. ) ;
#180 = CARTESIAN_POINT ( 'NONE',  ( -19.33333333333333200, 3.061616997868383100E-014, -125.0000000000000000 ) ) ;
#181 = ORIENTED_EDGE ( 'NONE', *, *, #290, .F. ) ;
#182 = CARTESIAN_POINT ( 'NONE',  ( -86.66666666666667100, 0.0000000000000000000, -102.3000000000000000 ) ) ;
#183 = CYLINDRICAL_SURFACE ( 'NONE', #75, 102.3000000000000000 ) ;
#184 = CIRCLE ( 'NONE', #22, 125.0000000000000000 ) ;
#185 = DIRECTION ( 'NONE',  ( 0.0000000000000000000, 0.0000000000000000000, -1.000000000000000000 ) ) ;
#186 = PLANE ( 'NONE',  #7 ) ;
#187 = EDGE_LOOP ( 'NONE', ( #55, #154, #315, #112 ) ) ;
#188 = PERSON_AND_ORGANIZATION_ROLE ( 'creator' ) ;
#189 = FACE_BOUND ( 'NONE', #99, .T. ) ;
#190 = DIRECTION ( 'NONE',  ( 1.000000000000000000, 0.0000000000000000000, -0.0000000000000000000 ) ) ;
#191 = ORIENTED_EDGE ( 'NONE', *, *, #199, .T. ) ;
#192 = APPROVAL_STATUS ( 'not_yet_approved' ) ;
#193 = CARTESIAN_POINT ( 'NONE',  ( -130.0000000000000000, 0.0000000000000000000, 0.0000000000000000000 ) ) ;
#194 = ADVANCED_FACE ( 'NONE', ( #150 ), #120, .T. ) ;
#195 = DIRECTION ( 'NONE',  ( 1.000000000000000000, 0.0000000000000000000, -0.0000000000000000000 ) ) ;
#196 = CALENDAR_DATE ( 2017, 28, 7 ) ;
#197 = VERTEX_POINT ( 'NONE', #135 ) ;
#198 = CARTESIAN_POINT ( 'NONE',  ( -58.00000000000000000, -1.530808498934191600E-014, 125.0000000000000000 ) ) ;
#199 = EDGE_CURVE ( 'NONE', #104, #52, #61, .T. ) ;
#200 = FACE_OUTER_BOUND ( 'NONE', #330, .T. ) ;
#201 = CARTESIAN_POINT ( 'NONE',  ( -130.0000000000000000, -1.252813675527742300E-014, 102.3000000000000000 ) ) ;
#202 = EDGE_CURVE ( 'NONE', #104, #319, #267, .T. ) ;
#203 = LOCAL_TIME ( 15, 27, 57.00000000000000000, #142 ) ;
#204 = DIRECTION ( 'NONE',  ( 0.0000000000000000000, 1.000000000000000000, -6.123233995736766000E-017 ) ) ;
#205 = CIRCLE ( 'NONE', #96, 102.3000000000000000 ) ;
#206 = SECURITY_CLASSIFICATION ( '', '', #334 ) ;
#207 = COORDINATED_UNIVERSAL_TIME_OFFSET ( 5, 0, .BEHIND. ) ;
#208 = PERSON_AND_ORGANIZATION ( #10, #235 ) ;
#209 = APPROVAL_PERSON_ORGANIZATION ( #208, #356, #71 ) ;
#210 = EDGE_CURVE ( 'NONE', #32, #1, #277, .T. ) ;
#211 = CARTESIAN_POINT ( 'NONE',  ( 0.0000000000000000000, 0.0000000000000000000, -102.3000000000000000 ) ) ;
#212 = CARTESIAN_POINT ( 'NONE',  ( -130.0000000000000000, -1.959434878635765200E-014, 160.0000000000000000 ) ) ;
#213 = PRODUCT_DEFINITION_FORMATION_WITH_SPECIFIED_SOURCE ( 'ANY', '', #260, .NOT_KNOWN. ) ;
#214 = ORIENTED_EDGE ( 'NONE', *, *, #199, .F. ) ;
#215 = CARTESIAN_POINT ( 'NONE',  ( 0.0000000000000000000, 0.0000000000000000000, 0.0000000000000000000 ) ) ;
#216 = ORIENTED_EDGE ( 'NONE', *, *, #12, .F. ) ;
#217 = AXIS2_PLACEMENT_3D ( 'NONE', #57, #294, #94 ) ;
#218 = ORIENTED_EDGE ( 'NONE', *, *, #49, .F. ) ;
#219 = CC_DESIGN_PERSON_AND_ORGANIZATION_ASSIGNMENT ( #177, #228, ( #260 ) ) ;
#220 = CARTESIAN_POINT ( 'NONE',  ( 0.0000000000000000000, 0.0000000000000000000, 0.0000000000000000000 ) ) ;
#221 = EDGE_LOOP ( 'NONE', ( #76, #27, #234, #379 ) ) ;
#222 = DIRECTION ( 'NONE',  ( -0.0000000000000000000, 0.0000000000000000000, -1.000000000000000000 ) ) ;
#223 = ORIENTED_EDGE ( 'NONE', *, *, #327, .F. ) ;
#224 =( NAMED_UNIT ( * ) SI_UNIT ( $, .STERADIAN. ) SOLID_ANGLE_UNIT ( ) );
#225 = DIRECTION ( 'NONE',  ( 0.0000000000000000000, 0.0000000000000000000, -1.000000000000000000 ) ) ;
#226 = CC_DESIGN_DATE_AND_TIME_ASSIGNMENT ( #383, #369, ( #206 ) ) ;
#227 = CLOSED_SHELL ( 'NONE', ( #171, #13, #318, #58, #378, #69, #361, #103, #92, #194, #167 ) ) ;
#228 = PERSON_AND_ORGANIZATION_ROLE ( 'design_owner' ) ;
#229 = PERSON_AND_ORGANIZATION_ROLE ( 'design_supplier' ) ;
#230 = ORIENTED_EDGE ( 'NONE', *, *, #143, .F. ) ;
#231 = CC_DESIGN_PERSON_AND_ORGANIZATION_ASSIGNMENT ( #20, #285, ( #271 ) ) ;
#232 = APPROVAL_DATE_TIME ( #296, #356 ) ;
#233 = ORIENTED_EDGE ( 'NONE', *, *, #132, .F. ) ;
#234 = ORIENTED_EDGE ( 'NONE', *, *, #39, .F. ) ;
#235 = ORGANIZATION ( 'UNSPECIFIED', 'UNSPECIFIED', '' ) ;
#236 = COORDINATED_UNIVERSAL_TIME_OFFSET ( 5, 0, .BEHIND. ) ;
#237 = DATE_AND_TIME ( #196, #62 ) ;
#238 = AXIS2_PLACEMENT_3D ( 'NONE', #256, #53, #343 ) ;
#239 = DIRECTION ( 'NONE',  ( -1.000000000000000000, -0.0000000000000000000, 0.0000000000000000000 ) ) ;
#240 = DIRECTION ( 'NONE',  ( -1.000000000000000000, -0.0000000000000000000, 0.0000000000000000000 ) ) ;
#241 = AXIS2_PLACEMENT_3D ( 'NONE', #288, #195, #381 ) ;
#242 = ORIENTED_EDGE ( 'NONE', *, *, #210, .T. ) ;
#243 = DIRECTION ( 'NONE',  ( 0.0000000000000000000, 0.0000000000000000000, -1.000000000000000000 ) ) ;
#244 = DIRECTION ( 'NONE',  ( 0.0000000000000000000, 1.000000000000000000, -6.123233995736766000E-017 ) ) ;
#245 = CARTESIAN_POINT ( 'NONE',  ( -130.0000000000000000, -1.959434878635765200E-014, 160.0000000000000000 ) ) ;
#246 = EDGE_LOOP ( 'NONE', ( #146, #111, #218, #242 ) ) ;
#247 = FACE_OUTER_BOUND ( 'NONE', #289, .T. ) ;
#248 = ORIENTED_EDGE ( 'NONE', *, *, #254, .F. ) ;
#249 = DIRECTION ( 'NONE',  ( 1.000000000000000000, 0.0000000000000000000, -0.0000000000000000000 ) ) ;
#250 = UNCERTAINTY_MEASURE_WITH_UNIT (LENGTH_MEASURE( 1.000000000000000100E-005 ), #164, 'distance_accuracy_value', 'NONE');
#251 = EDGE_LOOP ( 'NONE', ( #125, #119, #181, #230 ) ) ;
#252 = CARTESIAN_POINT ( 'NONE',  ( -106.6666666666666600, -1.959434878635764900E-014, 160.0000000000000000 ) ) ;
#253 = CARTESIAN_POINT ( 'NONE',  ( 0.0000000000000000000, 0.0000000000000000000, 0.0000000000000000000 ) ) ;
#254 = EDGE_CURVE ( 'NONE', #1, #301, #46, .T. ) ;
#255 = VERTEX_POINT ( 'NONE', #387 ) ;
#256 = CARTESIAN_POINT ( 'NONE',  ( -130.0000000000000000, 0.0000000000000000000, 0.0000000000000000000 ) ) ;
#257 = AXIS2_PLACEMENT_3D ( 'NONE', #287, #282, #355 ) ;
#258 =( NAMED_UNIT ( * ) PLANE_ANGLE_UNIT ( ) SI_UNIT ( $, .RADIAN. ) );
#259 = ORIENTED_EDGE ( 'NONE', *, *, #338, .T. ) ;
#260 = PRODUCT ( '581138100', '581138100', '', ( #337 ) ) ;
#261 = B_SPLINE_CURVE_WITH_KNOTS ( 'NONE', 3,
 ( #311, #372, #11, #201 ),
 .UNSPECIFIED., .F., .F.,
 ( 4, 4 ),
 ( 0.0000000000000000000, 130.0000000000000000 ),
 .UNSPECIFIED. ) ;
#262 = CARTESIAN_POINT ( 'NONE',  ( -58.00000000000000000, -1.530808498934191600E-014, 125.0000000000000000 ) ) ;
#263 = APPLICATION_CONTEXT ( 'configuration controlled 3d designs of mechanical parts and assemblies' ) ;
#264 = AXIS2_PLACEMENT_3D ( 'NONE', #215, #118, #244 ) ;
#265 = DIRECTION ( 'NONE',  ( 1.000000000000000000, 0.0000000000000000000, -0.0000000000000000000 ) ) ;
#266 = CARTESIAN_POINT ( 'NONE',  ( -58.00000000000000000, 0.0000000000000000000, 0.0000000000000000000 ) ) ;
#267 = CIRCLE ( 'NONE', #115, 125.0000000000000000 ) ;
#268 = DIRECTION ( 'NONE',  ( 0.0000000000000000000, -1.000000000000000000, -6.123233995736766000E-017 ) ) ;
#269 = CARTESIAN_POINT ( 'NONE',  ( -95.00000000000000000, 0.0000000000000000000, 0.0000000000000000000 ) ) ;
#270 = DIRECTION ( 'NONE',  ( -1.000000000000000000, 0.0000000000000000000, 0.0000000000000000000 ) ) ;
#271 = PRODUCT_DEFINITION ( 'UNKNOWN', '', #213, #5 ) ;
#272 = CARTESIAN_POINT ( 'NONE',  ( -70.33333333333332900, 1.602246228884453400E-014, -130.8333333333333400 ) ) ;
#273 = CC_DESIGN_APPROVAL ( #356, ( #206 ) ) ;
#274 = DIRECTION ( 'NONE',  ( -1.000000000000000000, 0.0000000000000000000, 0.0000000000000000000 ) ) ;
#275 = EDGE_LOOP ( 'NONE', ( #179, #172 ) ) ;
#276 = ORIENTED_EDGE ( 'NONE', *, *, #325, .F. ) ;
#277 = B_SPLINE_CURVE_WITH_KNOTS ( 'NONE', 3,
 ( #364, #252, #34, #212 ),
 .UNSPECIFIED., .F., .F.,
 ( 4, 4 ),
 ( 95.00000000000000000, 130.0000000000000000 ),
 .UNSPECIFIED. ) ;
#278 = CC_DESIGN_APPROVAL ( #2, ( #213 ) ) ;
#279 = APPROVAL_ROLE ( '' ) ;
#280 = DATE_TIME_ROLE ( 'creation_date' ) ;
#281 =( GEOMETRIC_REPRESENTATION_CONTEXT ( 3 ) GLOBAL_UNCERTAINTY_ASSIGNED_CONTEXT ( ( #250 ) ) GLOBAL_UNIT_ASSIGNED_CONTEXT ( ( #164, #258, #224 ) ) REPRESENTATION_CONTEXT ( 'NONE', 'WORKASPACE' ) );
#282 = DIRECTION ( 'NONE',  ( -1.000000000000000000, 0.0000000000000000000, 0.0000000000000000000 ) ) ;
#283 = CC_DESIGN_PERSON_AND_ORGANIZATION_ASSIGNMENT ( #84, #188, ( #213 ) ) ;
#284 = CARTESIAN_POINT ( 'NONE',  ( -106.6666666666666600, 3.918869757271530400E-014, -160.0000000000000000 ) ) ;
#285 = PERSON_AND_ORGANIZATION_ROLE ( 'creator' ) ;
#286 = DIRECTION ( 'NONE',  ( -1.000000000000000000, 0.0000000000000000000, 0.0000000000000000000 ) ) ;
#287 = CARTESIAN_POINT ( 'NONE',  ( 0.0000000000000000000, 0.0000000000000000000, 0.0000000000000000000 ) ) ;
#288 = CARTESIAN_POINT ( 'NONE',  ( -95.00000000000000000, 0.0000000000000000000, 0.0000000000000000000 ) ) ;
#289 = EDGE_LOOP ( 'NONE', ( #333, #110 ) ) ;
#290 = EDGE_CURVE ( 'NONE', #47, #255, #101, .T. ) ;
#291 = DIRECTION ( 'NONE',  ( 0.0000000000000000000, -1.000000000000000000, -6.123233995736766000E-017 ) ) ;
#292 = FACE_BOUND ( 'NONE', #275, .T. ) ;
#293 = APPROVAL ( #350, 'UNSPECIFIED' ) ;
#294 = DIRECTION ( 'NONE',  ( 1.000000000000000000, 0.0000000000000000000, -0.0000000000000000000 ) ) ;
#295 = CARTESIAN_POINT ( 'NONE',  ( 0.0000000000000000000, 0.0000000000000000000, 0.0000000000000000000 ) ) ;
#296 = DATE_AND_TIME ( #141, #165 ) ;
#297 = B_SPLINE_CURVE_WITH_KNOTS ( 'NONE', 3,
 ( #126, #312, #182, #156 ),
 .UNSPECIFIED., .F., .F.,
 ( 4, 4 ),
 ( 0.0000000000000000000, 130.0000000000000000 ),
 .UNSPECIFIED. ) ;
#298 = APPROVAL_DATE_TIME ( #64, #2 ) ;
#299 = DIRECTION ( 'NONE',  ( 0.0000000000000000000, 0.0000000000000000000, -1.000000000000000000 ) ) ;
#300 = ORIENTED_EDGE ( 'NONE', *, *, #106, .T. ) ;
#301 = VERTEX_POINT ( 'NONE', #30 ) ;
#302 = CARTESIAN_POINT ( 'NONE',  ( -82.66666666666667100, 1.673683958834715900E-014, -136.6666666666666900 ) ) ;
#303 = AXIS2_PLACEMENT_3D ( 'NONE', #155, #36, #243 ) ;
#304 = CIRCLE ( 'NONE', #28, 102.3000000000000000 ) ;
#305 = B_SPLINE_CURVE_WITH_KNOTS ( 'NONE', 3,
 ( #262, #43, #33, #148 ),
 .UNSPECIFIED., .F., .F.,
 ( 4, 4 ),
 ( 0.0000000000000000000, 40.92981798151561900 ),
 .UNSPECIFIED. ) ;
#306 = CARTESIAN_POINT ( 'NONE',  ( -130.0000000000000000, 0.0000000000000000000, -160.0000000000000000 ) ) ;
#307 = EDGE_CURVE ( 'NONE', #87, #197, #332, .T. ) ;
#308 = CONICAL_SURFACE ( 'NONE', #377, 125.0000000000000000, 0.4417931655174440200 ) ;
#309 = SHAPE_DEFINITION_REPRESENTATION ( #341, #346 ) ;
#310 = DIRECTION ( 'NONE',  ( 0.0000000000000000000, 0.0000000000000000000, -1.000000000000000000 ) ) ;
#311 = CARTESIAN_POINT ( 'NONE',  ( 0.0000000000000000000, -1.252813675527742300E-014, 102.3000000000000000 ) ) ;
#312 = CARTESIAN_POINT ( 'NONE',  ( -43.33333333333333600, 0.0000000000000000000, -102.3000000000000000 ) ) ;
#313 = FACE_OUTER_BOUND ( 'NONE', #329, .T. ) ;
#314 = CARTESIAN_POINT ( 'NONE',  ( -58.00000000000000000, 0.0000000000000000000, 0.0000000000000000000 ) ) ;
#315 = ORIENTED_EDGE ( 'NONE', *, *, #327, .T. ) ;
#316 = ORIENTED_EDGE ( 'NONE', *, *, #143, .T. ) ;
#317 = AXIS2_PLACEMENT_3D ( 'NONE', #26, #352, #299 ) ;
#318 = ADVANCED_FACE ( 'NONE', ( #38, #108 ), #186, .T. ) ;
#319 = VERTEX_POINT ( 'NONE', #54 ) ;
#320 = DIRECTION ( 'NONE',  ( 1.000000000000000000, 0.0000000000000000000, -0.0000000000000000000 ) ) ;
#321 = CARTESIAN_POINT ( 'NONE',  ( -130.0000000000000000, 160.0000000000000000, 0.0000000000000000000 ) ) ;
#322 = PLANE ( 'NONE',  #48 ) ;
#323 = APPLICATION_CONTEXT ( 'configuration controlled 3d designs of mechanical parts and assemblies' ) ;
#324 = EDGE_LOOP ( 'NONE', ( #9, #15, #14, #316 ) ) ;
#325 = EDGE_CURVE ( 'NONE', #77, #158, #304, .T. ) ;
#326 = CARTESIAN_POINT ( 'NONE',  ( -58.00000000000000000, 0.0000000000000000000, -125.0000000000000000 ) ) ;
#327 = EDGE_CURVE ( 'NONE', #301, #1, #342, .T. ) ;
#328 = CARTESIAN_POINT ( 'NONE',  ( -94.99999999999998600, 0.0000000000000000000, 142.5000000000000000 ) ) ;
#329 = EDGE_LOOP ( 'NONE', ( #163, #153, #90, #214 ) ) ;
#330 = EDGE_LOOP ( 'NONE', ( #259, #160 ) ) ;
#331 = CARTESIAN_POINT ( 'NONE',  ( -58.00000000000000000, -1.530808498934191600E-014, 125.0000000000000000 ) ) ;
#332 = B_SPLINE_CURVE_WITH_KNOTS ( 'NONE', 3,
 ( #326, #272, #302, #105 ),
 .UNSPECIFIED., .F., .F.,
 ( 4, 4 ),
 ( 0.0000000000000000000, 40.92981798151561900 ),
 .UNSPECIFIED. ) ;
#333 = ORIENTED_EDGE ( 'NONE', *, *, #25, .T. ) ;
#334 = SECURITY_CLASSIFICATION_LEVEL ( 'unclassified' ) ;
#335 = B_SPLINE_CURVE_WITH_KNOTS ( 'NONE', 3,
 ( #8, #284, #16, #306 ),
 .UNSPECIFIED., .F., .F.,
 ( 4, 4 ),
 ( 95.00000000000000000, 130.0000000000000000 ),
 .UNSPECIFIED. ) ;
#336 = DIRECTION ( 'NONE',  ( 0.0000000000000000000, 0.0000000000000000000, 1.000000000000000000 ) ) ;
#337 = MECHANICAL_CONTEXT ( 'NONE', #323, 'mechanical' ) ;
#338 = EDGE_CURVE ( 'NONE', #319, #104, #184, .T. ) ;
#339 = CARTESIAN_POINT ( 'NONE',  ( -58.00000000000000000, 0.0000000000000000000, -125.0000000000000000 ) ) ;
#340 = CARTESIAN_POINT ( 'NONE',  ( 0.0000000000000000000, 0.0000000000000000000, 0.0000000000000000000 ) ) ;
#341 = PRODUCT_DEFINITION_SHAPE ( 'NONE', 'NONE',  #271 ) ;
#342 = CIRCLE ( 'NONE', #317, 160.0000000000000000 ) ;
#343 = DIRECTION ( 'NONE',  ( 0.0000000000000000000, 0.0000000000000000000, -1.000000000000000000 ) ) ;
#344 = CARTESIAN_POINT ( 'NONE',  ( -95.00000000000000000, -1.959434878635765200E-014, 160.0000000000000000 ) ) ;
#345 = EDGE_CURVE ( 'NONE', #373, #301, #335, .T. ) ;
#346 = ADVANCED_BREP_SHAPE_REPRESENTATION ( '581138100', ( #113, #375 ), #281 ) ;
#347 = ORIENTED_EDGE ( 'NONE', *, *, #56, .F. ) ;
#348 = EDGE_CURVE ( 'NONE', #158, #77, #205, .T. ) ;
#349 = LOCAL_TIME ( 15, 27, 57.00000000000000000, #157 ) ;
#350 = APPROVAL_STATUS ( 'not_yet_approved' ) ;
#351 = ORIENTED_EDGE ( 'NONE', *, *, #202, .F. ) ;
#352 = DIRECTION ( 'NONE',  ( 1.000000000000000000, 0.0000000000000000000, -0.0000000000000000000 ) ) ;
#353 = CARTESIAN_POINT ( 'NONE',  ( 0.0000000000000000000, 0.0000000000000000000, -125.0000000000000000 ) ) ;
#354 = CALENDAR_DATE ( 2017, 28, 7 ) ;
#355 = DIRECTION ( 'NONE',  ( 0.0000000000000000000, -1.000000000000000000, -6.123233995736766000E-017 ) ) ;
#356 = APPROVAL ( #192, 'UNSPECIFIED' ) ;
#357 = FACE_OUTER_BOUND ( 'NONE', #187, .T. ) ;
#358 = FACE_OUTER_BOUND ( 'NONE', #70, .T. ) ;
#359 = APPROVAL_PERSON_ORGANIZATION ( #37, #2, #279 ) ;
#360 = CARTESIAN_POINT ( 'NONE',  ( -130.0000000000000000, 0.0000000000000000000, 0.0000000000000000000 ) ) ;
#361 = ADVANCED_FACE ( 'NONE', ( #358 ), #371, .T. ) ;
#362 = DIRECTION ( 'NONE',  ( 0.0000000000000000000, 0.0000000000000000000, -1.000000000000000000 ) ) ;
#363 = AXIS2_PLACEMENT_3D ( 'NONE', #295, #170, #268 ) ;
#364 = CARTESIAN_POINT ( 'NONE',  ( -95.00000000000000000, -1.959434878635765200E-014, 160.0000000000000000 ) ) ;
#365 = CIRCLE ( 'NONE', #241, 160.0000000000000000 ) ;
#366 = CYLINDRICAL_SURFACE ( 'NONE', #59, 160.0000000000000000 ) ;
#367 = B_SPLINE_CURVE_WITH_KNOTS ( 'NONE', 3,
 ( #353, #180, #382, #18 ),
 .UNSPECIFIED., .F., .F.,
 ( 4, 4 ),
 ( 0.0000000000000000000, 58.00000000000000000 ),
 .UNSPECIFIED. ) ;
#368 = EDGE_CURVE ( 'NONE', #197, #144, #124, .T. ) ;
#369 = DATE_TIME_ROLE ( 'classification_date' ) ;
#370 = CIRCLE ( 'NONE', #79, 102.3000000000000000 ) ;
#371 = CYLINDRICAL_SURFACE ( 'NONE', #140, 125.0000000000000000 ) ;
#372 = CARTESIAN_POINT ( 'NONE',  ( -43.33333333333333600, -1.252813675527742300E-014, 102.3000000000000000 ) ) ;
#373 = VERTEX_POINT ( 'NONE', #29 ) ;
#374 = DIRECTION ( 'NONE',  ( 0.0000000000000000000, 0.0000000000000000000, -1.000000000000000000 ) ) ;
#375 = AXIS2_PLACEMENT_3D ( 'NONE', #50, #336, #114 ) ;
#376 = CARTESIAN_POINT ( 'NONE',  ( 0.0000000000000000000, -1.530808498934191600E-014, 125.0000000000000000 ) ) ;
#377 = AXIS2_PLACEMENT_3D ( 'NONE', #314, #274, #117 ) ;
#378 = ADVANCED_FACE ( 'NONE', ( #19 ), #93, .F. ) ;
#379 = ORIENTED_EDGE ( 'NONE', *, *, #12, .T. ) ;
#380 = AXIS2_PLACEMENT_3D ( 'NONE', #168, #123, #222 ) ;
#381 = DIRECTION ( 'NONE',  ( 0.0000000000000000000, 0.0000000000000000000, -1.000000000000000000 ) ) ;
#382 = CARTESIAN_POINT ( 'NONE',  ( -38.66666666666667100, 3.061616997868383100E-014, -125.0000000000000000 ) ) ;
#383 = DATE_AND_TIME ( #354, #4 ) ;
#384 = DATE_AND_TIME ( #107, #203 ) ;
#385 = AXIS2_PLACEMENT_3D ( 'NONE', #149, #169, #225 ) ;
#386 = ORIENTED_EDGE ( 'NONE', *, *, #290, .T. ) ;
#387 = CARTESIAN_POINT ( 'NONE',  ( -130.0000000000000000, -1.252813675527742300E-014, 102.3000000000000000 ) ) ;
ENDSEC;
END-ISO-10303-21;
