ISO-10303-21;
HEADER;
FILE_DESCRIPTION (( 'STEP AP203' ),
    '1' );
FILE_NAME ('581138060.STEP',
    '2017-07-28T19:22:06',
    ( '' ),
    ( '' ),
    'SwSTEP 2.0',
    'SolidWorks 2017',
    '' );
FILE_SCHEMA (( 'CONFIG_CONTROL_DESIGN' ));
ENDSEC;

DATA;
#1 = APPLICATION_CONTEXT ( 'configuration controlled 3d designs of mechanical parts and assemblies' ) ;
#2 = CARTESIAN_POINT ( 'NONE',  ( -92.00000000000001400, -105.9999999999999900, -1.298125607096194500E-014 ) ) ;
#3 = DIRECTION ( 'NONE',  ( 1.000000000000000000, -1.544658121217610000E-016, -0.0000000000000000000 ) ) ;
#4 = ORIENTED_EDGE ( 'NONE', *, *, #309, .T. ) ;
#5 = ORIENTED_EDGE ( 'NONE', *, *, #157, .F. ) ;
#6 = CARTESIAN_POINT ( 'NONE',  ( -92.00000000000001400, -65.39999999999999100, -8.009190066423690700E-015 ) ) ;
#7 = CC_DESIGN_DATE_AND_TIME_ASSIGNMENT ( #193, #69, ( #122 ) ) ;
#8 = ORIENTED_EDGE ( 'NONE', *, *, #261, .T. ) ;
#9 = CIRCLE ( 'NONE', #14, 80.00000000000000000 ) ;
#10 = DIRECTION ( 'NONE',  ( 1.000000000000000000, -1.544658121217610000E-016, -0.0000000000000000000 ) ) ;
#11 = CARTESIAN_POINT ( 'NONE',  ( -38.00000000000000000, 80.00000000000000000, 0.0000000000000000000 ) ) ;
#12 = DIRECTION ( 'NONE',  ( 1.000000000000000000, -1.544658121217610000E-016, -0.0000000000000000000 ) ) ;
#13 = DIRECTION ( 'NONE',  ( 2.465190328815661900E-032, 6.123233995736766000E-017, 1.000000000000000000 ) ) ;
#14 = AXIS2_PLACEMENT_3D ( 'NONE', #92, #310, #247 ) ;
#15 = LOCAL_TIME ( 15, 22, 6.000000000000000000, #272 ) ;
#16 = CALENDAR_DATE ( 2017, 28, 7 ) ;
#17 =( LENGTH_UNIT ( ) NAMED_UNIT ( * ) SI_UNIT ( .MILLI., .METRE. ) );
#18 = AXIS2_PLACEMENT_3D ( 'NONE', #169, #230, #282 ) ;
#19 = EDGE_LOOP ( 'NONE', ( #347, #27, #339, #117 ) ) ;
#20 = DIRECTION ( 'NONE',  ( -1.000000000000000000, 1.544658121217609800E-016, 0.0000000000000000000 ) ) ;
#21 = EDGE_CURVE ( 'NONE', #251, #49, #128, .T. ) ;
#22 = CYLINDRICAL_SURFACE ( 'NONE', #41, 65.40000000000000600 ) ;
#23 = ORIENTED_EDGE ( 'NONE', *, *, #21, .F. ) ;
#24 = EDGE_CURVE ( 'NONE', #308, #267, #79, .T. ) ;
#25 = APPROVAL_STATUS ( 'not_yet_approved' ) ;
#26 = DIRECTION ( 'NONE',  ( 1.734723475976807100E-016, 1.000000000000000000, 0.0000000000000000000 ) ) ;
#27 = ORIENTED_EDGE ( 'NONE', *, *, #96, .F. ) ;
#28 = CARTESIAN_POINT ( 'NONE',  ( -92.00000000000000000, 1.421085471520200100E-014, 0.0000000000000000000 ) ) ;
#29 = CARTESIAN_POINT ( 'NONE',  ( -12.66666666666668700, -80.00000000000000000, -9.797174393178824500E-015 ) ) ;
#30 = DIRECTION ( 'NONE',  ( -1.000000000000000000, 1.544658121217609800E-016, 0.0000000000000000000 ) ) ;
#31 = EDGE_LOOP ( 'NONE', ( #125, #368, #53, #196 ) ) ;
#32 = ADVANCED_BREP_SHAPE_REPRESENTATION ( '581138060', ( #81, #331 ), #327 ) ;
#33 = PERSON_AND_ORGANIZATION ( #273, #218 ) ;
#34 = CARTESIAN_POINT ( 'NONE',  ( 0.0000000000000000000, 65.40000000000000600, 0.0000000000000000000 ) ) ;
#35 = EDGE_CURVE ( 'NONE', #360, #85, #211, .T. ) ;
#36 = VERTEX_POINT ( 'NONE', #177 ) ;
#37 = CIRCLE ( 'NONE', #165, 106.0000000000000000 ) ;
#38 = CARTESIAN_POINT ( 'NONE',  ( -25.33333333333332100, 80.00000000000000000, 1.959434878635765200E-014 ) ) ;
#39 = COORDINATED_UNIVERSAL_TIME_OFFSET ( 5, 0, .BEHIND. ) ;
#40 = PERSON_AND_ORGANIZATION_ROLE ( 'design_owner' ) ;
#41 = AXIS2_PLACEMENT_3D ( 'NONE', #364, #161, #110 ) ;
#42 = ORIENTED_EDGE ( 'NONE', *, *, #274, .F. ) ;
#43 = PERSON_AND_ORGANIZATION ( #273, #218 ) ;
#44 = CARTESIAN_POINT ( 'NONE',  ( -2.020412822552637100E-014, -65.40000000000000600, -8.009190066423690700E-015 ) ) ;
#45 = CARTESIAN_POINT ( 'NONE',  ( -67.00000000000001400, -87.49999999999998600, 0.0000000000000000000 ) ) ;
#46 = EDGE_LOOP ( 'NONE', ( #345, #381, #290, #118 ) ) ;
#47 = CARTESIAN_POINT ( 'NONE',  ( -83.66666666666665700, 106.0000000000000100, 2.596251214192388600E-014 ) ) ;
#48 = PERSON_AND_ORGANIZATION_ROLE ( 'classification_officer' ) ;
#49 = VERTEX_POINT ( 'NONE', #2 ) ;
#50 = ADVANCED_FACE ( 'NONE', ( #180 ), #343, .T. ) ;
#51 = CARTESIAN_POINT ( 'NONE',  ( -38.00000000000000000, 5.869700860626920100E-015, 0.0000000000000000000 ) ) ;
#52 = EDGE_CURVE ( 'NONE', #297, #251, #293, .T. ) ;
#53 = ORIENTED_EDGE ( 'NONE', *, *, #202, .F. ) ;
#54 = MECHANICAL_CONTEXT ( 'NONE', #168, 'mechanical' ) ;
#55 = DATE_AND_TIME ( #16, #15 ) ;
#56 = EDGE_CURVE ( 'NONE', #360, #333, #156, .T. ) ;
#57 = FACE_OUTER_BOUND ( 'NONE', #99, .T. ) ;
#58 = AXIS2_PLACEMENT_3D ( 'NONE', #296, #132, #358 ) ;
#59 = CARTESIAN_POINT ( 'NONE',  ( -30.66666666666668200, -65.40000000000000600, -8.009190066423689100E-015 ) ) ;
#60 = CARTESIAN_POINT ( 'NONE',  ( 0.0000000000000000000, 0.0000000000000000000, 0.0000000000000000000 ) ) ;
#61 = PRODUCT_DEFINITION_SHAPE ( 'NONE', 'NONE',  #319 ) ;
#62 = CARTESIAN_POINT ( 'NONE',  ( -38.00000000000000000, 80.00000000000000000, 0.0000000000000000000 ) ) ;
#63 = CARTESIAN_POINT ( 'NONE',  ( -75.33333333333334300, -105.9999999999999900, -1.298125607096194100E-014 ) ) ;
#64 = PERSON_AND_ORGANIZATION ( #273, #218 ) ;
#65 = AXIS2_PLACEMENT_3D ( 'NONE', #113, #338, #97 ) ;
#66 = CARTESIAN_POINT ( 'NONE',  ( -61.33333333333335000, -65.39999999999999100, -8.009190066423689100E-015 ) ) ;
#67 = VERTEX_POINT ( 'NONE', #6 ) ;
#68 = CIRCLE ( 'NONE', #279, 87.50000000000000000 ) ;
#69 = DATE_TIME_ROLE ( 'classification_date' ) ;
#70 = DATE_AND_TIME ( #222, #363 ) ;
#71 = PLANE ( 'NONE',  #121 ) ;
#72 = DIRECTION ( 'NONE',  ( 1.000000000000000000, -1.544658121217610000E-016, -0.0000000000000000000 ) ) ;
#73 = PRODUCT ( '581138060', '581138060', '', ( #54 ) ) ;
#74 = DATE_AND_TIME ( #316, #108 ) ;
#75 = AXIS2_PLACEMENT_3D ( 'NONE', #77, #209, #111 ) ;
#76 = DATE_TIME_ROLE ( 'creation_date' ) ;
#77 = CARTESIAN_POINT ( 'NONE',  ( -67.00000000000000000, 87.50000000000000000, 0.0000000000000000000 ) ) ;
#78 = PERSON_AND_ORGANIZATION_ROLE ( 'creator' ) ;
#79 = CIRCLE ( 'NONE', #260, 80.00000000000000000 ) ;
#80 = FACE_OUTER_BOUND ( 'NONE', #226, .T. ) ;
#81 = MANIFOLD_SOLID_BREP ( 'AGRU_25012116011_PE_100_schwarz_Vorschweissbund_ANSI_160X14_6__SDR11__ISO_S_5_05.sldprt', #294 ) ;
#82 = DIRECTION ( 'NONE',  ( -1.000000000000000000, 1.544658121217609800E-016, 0.0000000000000000000 ) ) ;
#83 = AXIS2_PLACEMENT_3D ( 'NONE', #164, #129, #258 ) ;
#84 = FACE_BOUND ( 'NONE', #244, .T. ) ;
#85 = VERTEX_POINT ( 'NONE', #44 ) ;
#86 = COORDINATED_UNIVERSAL_TIME_OFFSET ( 5, 0, .BEHIND. ) ;
#87 = DIRECTION ( 'NONE',  ( 1.000000000000000000, -1.544658121217610000E-016, -0.0000000000000000000 ) ) ;
#88 = DIRECTION ( 'NONE',  ( 1.000000000000000000, -1.544658121217610000E-016, -0.0000000000000000000 ) ) ;
#89 = AXIS2_PLACEMENT_3D ( 'NONE', #131, #30, #13 ) ;
#90 = ORIENTED_EDGE ( 'NONE', *, *, #157, .T. ) ;
#91 = CYLINDRICAL_SURFACE ( 'NONE', #370, 106.0000000000000000 ) ;
#92 = CARTESIAN_POINT ( 'NONE',  ( -1.235726496974089900E-014, 1.908774969154810100E-030, 0.0000000000000000000 ) ) ;
#93 = DIRECTION ( 'NONE',  ( 2.121985903335543600E-016, 1.000000000000000000, 0.0000000000000000000 ) ) ;
#94 = ORIENTED_EDGE ( 'NONE', *, *, #112, .F. ) ;
#95 = ORIENTED_EDGE ( 'NONE', *, *, #21, .T. ) ;
#96 = EDGE_CURVE ( 'NONE', #289, #308, #212, .T. ) ;
#97 = DIRECTION ( 'NONE',  ( 2.121985903335543600E-016, 1.000000000000000000, 0.0000000000000000000 ) ) ;
#98 = EDGE_LOOP ( 'NONE', ( #321, #178 ) ) ;
#99 = EDGE_LOOP ( 'NONE', ( #216, #5, #42, #324 ) ) ;
#100 = EDGE_CURVE ( 'NONE', #175, #267, #337, .T. ) ;
#101 = LOCAL_TIME ( 15, 22, 6.000000000000000000, #39 ) ;
#102 = DIRECTION ( 'NONE',  ( 1.734723475976807100E-016, 1.000000000000000000, 0.0000000000000000000 ) ) ;
#103 = APPROVAL_STATUS ( 'not_yet_approved' ) ;
#104 = PRODUCT_RELATED_PRODUCT_CATEGORY ( 'detail', '', ( #73 ) ) ;
#105 = ORIENTED_EDGE ( 'NONE', *, *, #261, .F. ) ;
#106 = CARTESIAN_POINT ( 'NONE',  ( -38.00000000000001400, -80.00000000000000000, -9.797174393178826100E-015 ) ) ;
#107 = CIRCLE ( 'NONE', #253, 80.00000000000000000 ) ;
#108 = LOCAL_TIME ( 15, 22, 6.000000000000000000, #198 ) ;
#109 = APPROVAL ( #103, 'UNSPECIFIED' ) ;
#110 = DIRECTION ( 'NONE',  ( 2.465190328815661900E-032, 6.123233995736764800E-017, 1.000000000000000000 ) ) ;
#111 = DIRECTION ( 'NONE',  ( 1.544658121217610000E-016, 1.000000000000000000, 0.0000000000000000000 ) ) ;
#112 = EDGE_CURVE ( 'NONE', #49, #251, #37, .T. ) ;
#113 = CARTESIAN_POINT ( 'NONE',  ( -92.00000000000000000, 1.421085471520200100E-014, 0.0000000000000000000 ) ) ;
#114 = DIRECTION ( 'NONE',  ( 0.0000000000000000000, -6.123233995736766000E-017, 1.000000000000000000 ) ) ;
#115 = AXIS2_PLACEMENT_3D ( 'NONE', #127, #240, #93 ) ;
#116 = DIRECTION ( 'NONE',  ( 1.000000000000000000, 0.0000000000000000000, 0.0000000000000000000 ) ) ;
#117 = ORIENTED_EDGE ( 'NONE', *, *, #100, .T. ) ;
#118 = ORIENTED_EDGE ( 'NONE', *, *, #56, .F. ) ;
#119 = PERSON_AND_ORGANIZATION ( #273, #218 ) ;
#120 = CARTESIAN_POINT ( 'NONE',  ( -83.66666666666668600, -105.9999999999999900, -1.298125607096194100E-014 ) ) ;
#121 = AXIS2_PLACEMENT_3D ( 'NONE', #243, #307, #213 ) ;
#122 = SECURITY_CLASSIFICATION ( '', '', #367 ) ;
#123 = DIRECTION ( 'NONE',  ( 1.544658121217610000E-016, 1.000000000000000000, 0.0000000000000000000 ) ) ;
#124 = DIRECTION ( 'NONE',  ( 1.544658121217610000E-016, 1.000000000000000000, 0.0000000000000000000 ) ) ;
#125 = ORIENTED_EDGE ( 'NONE', *, *, #112, .T. ) ;
#126 = CC_DESIGN_PERSON_AND_ORGANIZATION_ASSIGNMENT ( #119, #48, ( #122 ) ) ;
#127 = CARTESIAN_POINT ( 'NONE',  ( -92.00000000000000000, 1.421085471520200100E-014, 0.0000000000000000000 ) ) ;
#128 = CIRCLE ( 'NONE', #372, 106.0000000000000000 ) ;
#129 = DIRECTION ( 'NONE',  ( 1.000000000000000000, -1.544658121217610000E-016, -0.0000000000000000000 ) ) ;
#130 = COORDINATED_UNIVERSAL_TIME_OFFSET ( 5, 0, .BEHIND. ) ;
#131 = CARTESIAN_POINT ( 'NONE',  ( 0.0000000000000000000, 0.0000000000000000000, 0.0000000000000000000 ) ) ;
#132 = DIRECTION ( 'NONE',  ( 1.000000000000000000, -1.544658121217610000E-016, -0.0000000000000000000 ) ) ;
#133 = CARTESIAN_POINT ( 'NONE',  ( -47.66666666666667900, -82.50000000000000000, -2.020667218593132800E-014 ) ) ;
#134 = PRODUCT_DEFINITION_FORMATION_WITH_SPECIFIED_SOURCE ( 'ANY', '', #73, .NOT_KNOWN. ) ;
#135 = CARTESIAN_POINT ( 'NONE',  ( 0.0000000000000000000, 65.40000000000000600, 0.0000000000000000000 ) ) ;
#136 = EDGE_LOOP ( 'NONE', ( #172, #4 ) ) ;
#137 = AXIS2_PLACEMENT_3D ( 'NONE', #250, #138, #200 ) ;
#138 = DIRECTION ( 'NONE',  ( -1.000000000000000000, 1.544658121217609800E-016, 0.0000000000000000000 ) ) ;
#139 = CARTESIAN_POINT ( 'NONE',  ( 0.0000000000000000000, 0.0000000000000000000, 0.0000000000000000000 ) ) ;
#140 = ADVANCED_FACE ( 'NONE', ( #57 ), #376, .T. ) ;
#141 = CIRCLE ( 'NONE', #58, 106.0000000000000000 ) ;
#142 = EDGE_CURVE ( 'NONE', #267, #188, #183, .T. ) ;
#143 = ADVANCED_FACE ( 'NONE', ( #268 ), #295, .F. ) ;
#144 = ORIENTED_EDGE ( 'NONE', *, *, #205, .T. ) ;
#145 = PERSON_AND_ORGANIZATION ( #273, #218 ) ;
#146 = DIRECTION ( 'NONE',  ( 1.309225264888156400E-016, 1.000000000000000000, 0.0000000000000000000 ) ) ;
#147 = DIRECTION ( 'NONE',  ( 2.465190328815661900E-032, 6.123233995736766000E-017, -1.000000000000000000 ) ) ;
#148 = CC_DESIGN_PERSON_AND_ORGANIZATION_ASSIGNMENT ( #201, #78, ( #319 ) ) ;
#149 = ORIENTED_EDGE ( 'NONE', *, *, #56, .T. ) ;
#150 = FACE_OUTER_BOUND ( 'NONE', #305, .T. ) ;
#151 = DIRECTION ( 'NONE',  ( 2.465190328815661900E-032, 6.123233995736766000E-017, -1.000000000000000000 ) ) ;
#152 = CC_DESIGN_SECURITY_CLASSIFICATION ( #122, ( #134 ) ) ;
#153 = ORIENTED_EDGE ( 'NONE', *, *, #205, .F. ) ;
#154 = ORIENTED_EDGE ( 'NONE', *, *, #202, .T. ) ;
#155 = APPROVAL_PERSON_ORGANIZATION ( #33, #291, #158 ) ;
#156 = B_SPLINE_CURVE_WITH_KNOTS ( 'NONE', 3,
 ( #34, #354, #318, #233 ),
 .UNSPECIFIED., .F., .F.,
 ( 4, 4 ),
 ( 1.010206411276320000E-014, 92.00000000000000000 ),
 .UNSPECIFIED. ) ;
#157 = EDGE_CURVE ( 'NONE', #308, #300, #304, .T. ) ;
#158 = APPROVAL_ROLE ( '' ) ;
#159 = ORIENTED_EDGE ( 'NONE', *, *, #191, .F. ) ;
#160 = CONICAL_SURFACE ( 'NONE', #246, 80.00000000000000000, 0.2530756521646019800 ) ;
#161 = DIRECTION ( 'NONE',  ( -1.000000000000000000, 1.544658121217609800E-016, 0.0000000000000000000 ) ) ;
#162 = CARTESIAN_POINT ( 'NONE',  ( -12.66666666666666300, 80.00000000000000000, 1.959434878635765200E-014 ) ) ;
#163 = CARTESIAN_POINT ( 'NONE',  ( 0.0000000000000000000, 80.00000000000000000, 0.0000000000000000000 ) ) ;
#164 = CARTESIAN_POINT ( 'NONE',  ( -1.010206411276320000E-014, 1.560423537284060000E-030, 0.0000000000000000000 ) ) ;
#165 = AXIS2_PLACEMENT_3D ( 'NONE', #192, #72, #146 ) ;
#166 = ORIENTED_EDGE ( 'NONE', *, *, #52, .T. ) ;
#167 = ORIENTED_EDGE ( 'NONE', *, *, #24, .F. ) ;
#168 = APPLICATION_CONTEXT ( 'configuration controlled 3d designs of mechanical parts and assemblies' ) ;
#169 = CARTESIAN_POINT ( 'NONE',  ( -1.127600428488849900E-015, 65.40000000000000600, 0.0000000000000000000 ) ) ;
#170 = CC_DESIGN_APPROVAL ( #291, ( #134 ) ) ;
#171 = CARTESIAN_POINT ( 'NONE',  ( -38.00000000000001400, -80.00000000000000000, -9.797174393178826100E-015 ) ) ;
#172 = ORIENTED_EDGE ( 'NONE', *, *, #350, .T. ) ;
#173 = FACE_OUTER_BOUND ( 'NONE', #207, .T. ) ;
#174 = APPROVAL_STATUS ( 'not_yet_approved' ) ;
#175 = VERTEX_POINT ( 'NONE', #302 ) ;
#176 = EDGE_CURVE ( 'NONE', #300, #188, #221, .T. ) ;
#177 = CARTESIAN_POINT ( 'NONE',  ( -67.00000000000001400, -105.9999999999999900, -1.298125607096194500E-014 ) ) ;
#178 = ORIENTED_EDGE ( 'NONE', *, *, #220, .F. ) ;
#179 = ORIENTED_EDGE ( 'NONE', *, *, #142, .F. ) ;
#180 = FACE_OUTER_BOUND ( 'NONE', #31, .T. ) ;
#181 = DIRECTION ( 'NONE',  ( 1.586032892321652200E-016, 1.000000000000000000, 0.0000000000000000000 ) ) ;
#182 = DIRECTION ( 'NONE',  ( 0.0000000000000000000, 0.0000000000000000000, 1.000000000000000000 ) ) ;
#183 = B_SPLINE_CURVE_WITH_KNOTS ( 'NONE', 3,
 ( #171, #133, #377, #352 ),
 .UNSPECIFIED., .F., .F.,
 ( 4, 4 ),
 ( 0.0000000000000000000, 29.95413160150031500 ),
 .UNSPECIFIED. ) ;
#184 = DIRECTION ( 'NONE',  ( -1.000000000000000000, 1.544658121217609800E-016, 0.0000000000000000000 ) ) ;
#185 = APPLICATION_PROTOCOL_DEFINITION ( 'international standard', 'config_control_design', 1994, #168 ) ;
#186 = CARTESIAN_POINT ( 'NONE',  ( -1.010206411276320000E-014, 1.560423537284060000E-030, 0.0000000000000000000 ) ) ;
#187 = EDGE_CURVE ( 'NONE', #297, #36, #141, .T. ) ;
#188 = VERTEX_POINT ( 'NONE', #45 ) ;
#189 = ORIENTED_EDGE ( 'NONE', *, *, #303, .F. ) ;
#190 = PERSON_AND_ORGANIZATION ( #273, #218 ) ;
#191 = EDGE_CURVE ( 'NONE', #36, #49, #217, .T. ) ;
#192 = CARTESIAN_POINT ( 'NONE',  ( -92.00000000000000000, 1.421085471520200100E-014, 0.0000000000000000000 ) ) ;
#193 = DATE_AND_TIME ( #340, #101 ) ;
#194 = DIRECTION ( 'NONE',  ( 1.586032892321652200E-016, 1.000000000000000000, 0.0000000000000000000 ) ) ;
#195 = UNCERTAINTY_MEASURE_WITH_UNIT (LENGTH_MEASURE( 1.000000000000000100E-005 ), #17, 'distance_accuracy_value', 'NONE');
#196 = ORIENTED_EDGE ( 'NONE', *, *, #191, .T. ) ;
#197 = CARTESIAN_POINT ( 'NONE',  ( 0.0000000000000000000, 0.0000000000000000000, 0.0000000000000000000 ) ) ;
#198 = COORDINATED_UNIVERSAL_TIME_OFFSET ( 5, 0, .BEHIND. ) ;
#199 = CARTESIAN_POINT ( 'NONE',  ( -92.00000000000000000, 106.0000000000000000, 0.0000000000000000000 ) ) ;
#200 = DIRECTION ( 'NONE',  ( 2.465190328815661900E-032, 6.123233995736764800E-017, -1.000000000000000000 ) ) ;
#201 = PERSON_AND_ORGANIZATION ( #273, #218 ) ;
#202 = EDGE_CURVE ( 'NONE', #36, #297, #255, .T. ) ;
#203 = ADVANCED_FACE ( 'NONE', ( #361 ), #229, .T. ) ;
#204 = CARTESIAN_POINT ( 'NONE',  ( -67.00000000000001400, -105.9999999999999900, -1.298125607096194500E-014 ) ) ;
#205 = EDGE_CURVE ( 'NONE', #85, #360, #348, .T. ) ;
#206 = DIRECTION ( 'NONE',  ( 1.309225264888156400E-016, 1.000000000000000000, 0.0000000000000000000 ) ) ;
#207 = EDGE_LOOP ( 'NONE', ( #105, #189, #144, #149 ) ) ;
#208 = CARTESIAN_POINT ( 'NONE',  ( 0.0000000000000000000, 0.0000000000000000000, 0.0000000000000000000 ) ) ;
#209 = DIRECTION ( 'NONE',  ( 1.000000000000000000, -1.544658121217610000E-016, -0.0000000000000000000 ) ) ;
#210 = AXIS2_PLACEMENT_3D ( 'NONE', #197, #252, #151 ) ;
#211 = CIRCLE ( 'NONE', #385, 65.40000000000000600 ) ;
#212 = B_SPLINE_CURVE_WITH_KNOTS ( 'NONE', 3,
 ( #163, #162, #38, #11 ),
 .UNSPECIFIED., .F., .F.,
 ( 4, 4 ),
 ( 1.235726496974089900E-014, 38.00000000000000000 ),
 .UNSPECIFIED. ) ;
#213 = DIRECTION ( 'NONE',  ( -1.544658121217610000E-016, -1.000000000000000000, 0.0000000000000000000 ) ) ;
#214 = CC_DESIGN_PERSON_AND_ORGANIZATION_ASSIGNMENT ( #64, #40, ( #73 ) ) ;
#215 = ORIENTED_EDGE ( 'NONE', *, *, #100, .F. ) ;
#216 = ORIENTED_EDGE ( 'NONE', *, *, #220, .T. ) ;
#217 = B_SPLINE_CURVE_WITH_KNOTS ( 'NONE', 3,
 ( #204, #63, #120, #378 ),
 .UNSPECIFIED., .F., .F.,
 ( 4, 4 ),
 ( 67.00000000000000000, 92.00000000000000000 ),
 .UNSPECIFIED. ) ;
#218 = ORGANIZATION ( 'UNSPECIFIED', 'UNSPECIFIED', '' ) ;
#219 = PLANE ( 'NONE',  #18 ) ;
#220 = EDGE_CURVE ( 'NONE', #188, #300, #68, .T. ) ;
#221 = CIRCLE ( 'NONE', #344, 87.50000000000000000 ) ;
#222 = CALENDAR_DATE ( 2017, 28, 7 ) ;
#223 = CARTESIAN_POINT ( 'NONE',  ( -67.00000000000000000, 1.034920941215800000E-014, 0.0000000000000000000 ) ) ;
#224 = CC_DESIGN_PERSON_AND_ORGANIZATION_ASSIGNMENT ( #232, #284, ( #134 ) ) ;
#225 = ORIENTED_EDGE ( 'NONE', *, *, #350, .F. ) ;
#226 = EDGE_LOOP ( 'NONE', ( #386, #154 ) ) ;
#227 = CARTESIAN_POINT ( 'NONE',  ( -2.020412822552637100E-014, -65.40000000000000600, -8.009190066423690700E-015 ) ) ;
#228 = CC_DESIGN_PERSON_AND_ORGANIZATION_ASSIGNMENT ( #190, #362, ( #134 ) ) ;
#229 = CYLINDRICAL_SURFACE ( 'NONE', #89, 80.00000000000000000 ) ;
#230 = DIRECTION ( 'NONE',  ( 1.000000000000000000, -1.544658121217610000E-016, -0.0000000000000000000 ) ) ;
#231 = APPROVAL_DATE_TIME ( #256, #109 ) ;
#232 = PERSON_AND_ORGANIZATION ( #273, #218 ) ;
#233 = CARTESIAN_POINT ( 'NONE',  ( -92.00000000000000000, 65.40000000000000600, 0.0000000000000000000 ) ) ;
#234 = APPROVAL_PERSON_ORGANIZATION ( #145, #109, #356 ) ;
#235 = DIRECTION ( 'NONE',  ( -1.000000000000000000, 1.544658121217609800E-016, 0.0000000000000000000 ) ) ;
#236 = ADVANCED_FACE ( 'NONE', ( #150 ), #160, .T. ) ;
#237 = AXIS2_PLACEMENT_3D ( 'NONE', #245, #10, #373 ) ;
#238 = ORIENTED_EDGE ( 'NONE', *, *, #187, .F. ) ;
#239 = FACE_OUTER_BOUND ( 'NONE', #306, .T. ) ;
#240 = DIRECTION ( 'NONE',  ( 1.000000000000000000, -1.544658121217610000E-016, -0.0000000000000000000 ) ) ;
#241 = DIRECTION ( 'NONE',  ( 1.000000000000000000, -1.544658121217610000E-016, -0.0000000000000000000 ) ) ;
#242 = B_SPLINE_CURVE_WITH_KNOTS ( 'NONE', 3,
 ( #227, #59, #66, #315 ),
 .UNSPECIFIED., .F., .F.,
 ( 4, 4 ),
 ( 1.010206411276320000E-014, 92.00000000000000000 ),
 .UNSPECIFIED. ) ;
#243 = CARTESIAN_POINT ( 'NONE',  ( -92.00000000000000000, 106.0000000000000000, 0.0000000000000000000 ) ) ;
#244 = EDGE_LOOP ( 'NONE', ( #342, #8 ) ) ;
#245 = CARTESIAN_POINT ( 'NONE',  ( -67.00000000000000000, 1.034920941215800000E-014, 0.0000000000000000000 ) ) ;
#246 = AXIS2_PLACEMENT_3D ( 'NONE', #369, #20, #328 ) ;
#247 = DIRECTION ( 'NONE',  ( 1.544658121217610000E-016, 1.000000000000000000, 0.0000000000000000000 ) ) ;
#248 = ORIENTED_EDGE ( 'NONE', *, *, #96, .T. ) ;
#249 = CARTESIAN_POINT ( 'NONE',  ( -57.33333333333332900, 85.00000000000000000, 1.040949779275250000E-014 ) ) ;
#250 = CARTESIAN_POINT ( 'NONE',  ( 0.0000000000000000000, 0.0000000000000000000, 0.0000000000000000000 ) ) ;
#251 = VERTEX_POINT ( 'NONE', #199 ) ;
#252 = DIRECTION ( 'NONE',  ( -1.000000000000000000, 1.544658121217609800E-016, 0.0000000000000000000 ) ) ;
#253 = AXIS2_PLACEMENT_3D ( 'NONE', #262, #87, #26 ) ;
#254 = ORIENTED_EDGE ( 'NONE', *, *, #24, .T. ) ;
#255 = CIRCLE ( 'NONE', #237, 106.0000000000000000 ) ;
#256 = DATE_AND_TIME ( #317, #334 ) ;
#257 = CARTESIAN_POINT ( 'NONE',  ( -92.00000000000000000, 106.0000000000000000, 0.0000000000000000000 ) ) ;
#258 = DIRECTION ( 'NONE',  ( 1.544658121217610000E-016, 1.000000000000000000, 0.0000000000000000000 ) ) ;
#259 = ADVANCED_FACE ( 'NONE', ( #311, #382 ), #219, .T. ) ;
#260 = AXIS2_PLACEMENT_3D ( 'NONE', #51, #287, #102 ) ;
#261 = EDGE_CURVE ( 'NONE', #67, #333, #277, .T. ) ;
#262 = CARTESIAN_POINT ( 'NONE',  ( -38.00000000000000000, 5.869700860626920100E-015, 0.0000000000000000000 ) ) ;
#263 = EDGE_LOOP ( 'NONE', ( #238, #166, #95, #159 ) ) ;
#264 = ADVANCED_FACE ( 'NONE', ( #80, #301 ), #269, .T. ) ;
#265 = AXIS2_PLACEMENT_3D ( 'NONE', #139, #235, #271 ) ;
#266 = CARTESIAN_POINT ( 'NONE',  ( -38.00000000000000000, 5.869700860626920100E-015, 0.0000000000000000000 ) ) ;
#267 = VERTEX_POINT ( 'NONE', #106 ) ;
#268 = FACE_OUTER_BOUND ( 'NONE', #46, .T. ) ;
#269 = PLANE ( 'NONE',  #75 ) ;
#270 = CC_DESIGN_APPROVAL ( #109, ( #319 ) ) ;
#271 = DIRECTION ( 'NONE',  ( 2.465190328815661900E-032, 6.123233995736766000E-017, 1.000000000000000000 ) ) ;
#272 = COORDINATED_UNIVERSAL_TIME_OFFSET ( 5, 0, .BEHIND. ) ;
#273 = PERSON ( 'UNSPECIFIED', 'UNSPECIFIED', 'UNSPECIFIED', ('UNSPECIFIED'), ('UNSPECIFIED'), ('UNSPECIFIED') ) ;
#274 = EDGE_CURVE ( 'NONE', #267, #308, #107, .T. ) ;
#275 = DESIGN_CONTEXT ( 'detailed design', #1, 'design' ) ;
#276 = EDGE_LOOP ( 'NONE', ( #336, #153 ) ) ;
#277 = CIRCLE ( 'NONE', #65, 65.40000000000000600 ) ;
#278 = SHAPE_DEFINITION_REPRESENTATION ( #61, #32 ) ;
#279 = AXIS2_PLACEMENT_3D ( 'NONE', #366, #3, #194 ) ;
#280 = CARTESIAN_POINT ( 'NONE',  ( -75.33333333333332900, 106.0000000000000100, 2.596251214192388600E-014 ) ) ;
#281 = APPROVAL_DATE_TIME ( #74, #291 ) ;
#282 = DIRECTION ( 'NONE',  ( 1.544658121217610000E-016, 1.000000000000000000, 0.0000000000000000000 ) ) ;
#283 = APPROVAL_PERSON_ORGANIZATION ( #43, #285, #383 ) ;
#284 = PERSON_AND_ORGANIZATION_ROLE ( 'creator' ) ;
#285 = APPROVAL ( #174, 'UNSPECIFIED' ) ;
#286 = APPLICATION_PROTOCOL_DEFINITION ( 'international standard', 'config_control_design', 1994, #1 ) ;
#287 = DIRECTION ( 'NONE',  ( 1.000000000000000000, -1.544658121217610000E-016, -0.0000000000000000000 ) ) ;
#288 = DIRECTION ( 'NONE',  ( 1.000000000000000000, -1.544658121217610000E-016, -0.0000000000000000000 ) ) ;
#289 = VERTEX_POINT ( 'NONE', #326 ) ;
#290 = ORIENTED_EDGE ( 'NONE', *, *, #299, .F. ) ;
#291 = APPROVAL ( #25, 'UNSPECIFIED' ) ;
#292 = AXIS2_PLACEMENT_3D ( 'NONE', #359, #12, #124 ) ;
#293 = B_SPLINE_CURVE_WITH_KNOTS ( 'NONE', 3,
 ( #374, #280, #47, #257 ),
 .UNSPECIFIED., .F., .F.,
 ( 4, 4 ),
 ( 67.00000000000000000, 92.00000000000000000 ),
 .UNSPECIFIED. ) ;
#294 = CLOSED_SHELL ( 'NONE', ( #50, #298, #384, #380, #143, #259, #203, #375, #236, #140, #264 ) ) ;
#295 = CYLINDRICAL_SURFACE ( 'NONE', #137, 65.40000000000000600 ) ;
#296 = CARTESIAN_POINT ( 'NONE',  ( -67.00000000000000000, 1.034920941215800000E-014, 0.0000000000000000000 ) ) ;
#297 = VERTEX_POINT ( 'NONE', #371 ) ;
#298 = ADVANCED_FACE ( 'NONE', ( #387 ), #91, .T. ) ;
#299 = EDGE_CURVE ( 'NONE', #333, #67, #314, .T. ) ;
#300 = VERTEX_POINT ( 'NONE', #357 ) ;
#301 = FACE_BOUND ( 'NONE', #98, .T. ) ;
#302 = CARTESIAN_POINT ( 'NONE',  ( -2.471452993948178000E-014, -80.00000000000000000, -9.797174393178826100E-015 ) ) ;
#303 = EDGE_CURVE ( 'NONE', #85, #67, #242, .T. ) ;
#304 = B_SPLINE_CURVE_WITH_KNOTS ( 'NONE', 3,
 ( #62, #341, #249, #332 ),
 .UNSPECIFIED., .F., .F.,
 ( 4, 4 ),
 ( 0.0000000000000000000, 29.95413160150031500 ),
 .UNSPECIFIED. ) ;
#305 = EDGE_LOOP ( 'NONE', ( #167, #90, #355, #179 ) ) ;
#306 = EDGE_LOOP ( 'NONE', ( #225, #248, #254, #215 ) ) ;
#307 = DIRECTION ( 'NONE',  ( -1.000000000000000000, 1.544658121217610000E-016, 0.0000000000000000000 ) ) ;
#308 = VERTEX_POINT ( 'NONE', #351 ) ;
#309 = EDGE_CURVE ( 'NONE', #175, #289, #9, .T. ) ;
#310 = DIRECTION ( 'NONE',  ( 1.000000000000000000, -1.544658121217610000E-016, -0.0000000000000000000 ) ) ;
#311 = FACE_OUTER_BOUND ( 'NONE', #136, .T. ) ;
#312 = APPROVAL_DATE_TIME ( #70, #285 ) ;
#313 =( NAMED_UNIT ( * ) PLANE_ANGLE_UNIT ( ) SI_UNIT ( $, .RADIAN. ) );
#314 = CIRCLE ( 'NONE', #115, 65.40000000000000600 ) ;
#315 = CARTESIAN_POINT ( 'NONE',  ( -92.00000000000001400, -65.39999999999999100, -8.009190066423690700E-015 ) ) ;
#316 = CALENDAR_DATE ( 2017, 28, 7 ) ;
#317 = CALENDAR_DATE ( 2017, 28, 7 ) ;
#318 = CARTESIAN_POINT ( 'NONE',  ( -61.33333333333332100, 65.40000000000002000, 0.0000000000000000000 ) ) ;
#319 = PRODUCT_DEFINITION ( 'UNKNOWN', '', #134, #275 ) ;
#320 = AXIS2_PLACEMENT_3D ( 'NONE', #266, #82, #114 ) ;
#321 = ORIENTED_EDGE ( 'NONE', *, *, #176, .F. ) ;
#322 = CIRCLE ( 'NONE', #292, 80.00000000000000000 ) ;
#323 = CC_DESIGN_DATE_AND_TIME_ASSIGNMENT ( #55, #76, ( #319 ) ) ;
#324 = ORIENTED_EDGE ( 'NONE', *, *, #142, .T. ) ;
#325 = CC_DESIGN_APPROVAL ( #285, ( #122 ) ) ;
#326 = CARTESIAN_POINT ( 'NONE',  ( 0.0000000000000000000, 80.00000000000000000, 0.0000000000000000000 ) ) ;
#327 =( GEOMETRIC_REPRESENTATION_CONTEXT ( 3 ) GLOBAL_UNCERTAINTY_ASSIGNED_CONTEXT ( ( #195 ) ) GLOBAL_UNIT_ASSIGNED_CONTEXT ( ( #17, #313, #353 ) ) REPRESENTATION_CONTEXT ( 'NONE', 'WORKASPACE' ) );
#328 = DIRECTION ( 'NONE',  ( 0.0000000000000000000, -6.123233995736766000E-017, -1.000000000000000000 ) ) ;
#329 = EDGE_LOOP ( 'NONE', ( #23, #94 ) ) ;
#330 = FACE_OUTER_BOUND ( 'NONE', #329, .T. ) ;
#331 = AXIS2_PLACEMENT_3D ( 'NONE', #60, #182, #116 ) ;
#332 = CARTESIAN_POINT ( 'NONE',  ( -67.00000000000000000, 87.50000000000000000, 0.0000000000000000000 ) ) ;
#333 = VERTEX_POINT ( 'NONE', #365 ) ;
#334 = LOCAL_TIME ( 15, 22, 6.000000000000000000, #86 ) ;
#335 = CARTESIAN_POINT ( 'NONE',  ( -25.33333333333335000, -80.00000000000000000, -9.797174393178824500E-015 ) ) ;
#336 = ORIENTED_EDGE ( 'NONE', *, *, #35, .F. ) ;
#337 = B_SPLINE_CURVE_WITH_KNOTS ( 'NONE', 3,
 ( #346, #29, #335, #379 ),
 .UNSPECIFIED., .F., .F.,
 ( 4, 4 ),
 ( 1.235726496974089900E-014, 38.00000000000000000 ),
 .UNSPECIFIED. ) ;
#338 = DIRECTION ( 'NONE',  ( 1.000000000000000000, -1.544658121217610000E-016, -0.0000000000000000000 ) ) ;
#339 = ORIENTED_EDGE ( 'NONE', *, *, #309, .F. ) ;
#340 = CALENDAR_DATE ( 2017, 28, 7 ) ;
#341 = CARTESIAN_POINT ( 'NONE',  ( -47.66666666666665000, 82.50000000000000000, 1.010333609296566200E-014 ) ) ;
#342 = ORIENTED_EDGE ( 'NONE', *, *, #299, .T. ) ;
#343 = CYLINDRICAL_SURFACE ( 'NONE', #265, 106.0000000000000000 ) ;
#344 = AXIS2_PLACEMENT_3D ( 'NONE', #223, #88, #181 ) ;
#345 = ORIENTED_EDGE ( 'NONE', *, *, #35, .T. ) ;
#346 = CARTESIAN_POINT ( 'NONE',  ( -2.471452993948178000E-014, -80.00000000000000000, -9.797174393178826100E-015 ) ) ;
#347 = ORIENTED_EDGE ( 'NONE', *, *, #274, .T. ) ;
#348 = CIRCLE ( 'NONE', #83, 65.40000000000000600 ) ;
#349 = CYLINDRICAL_SURFACE ( 'NONE', #210, 80.00000000000000000 ) ;
#350 = EDGE_CURVE ( 'NONE', #289, #175, #322, .T. ) ;
#351 = CARTESIAN_POINT ( 'NONE',  ( -38.00000000000000000, 80.00000000000000000, 0.0000000000000000000 ) ) ;
#352 = CARTESIAN_POINT ( 'NONE',  ( -67.00000000000001400, -87.49999999999998600, 0.0000000000000000000 ) ) ;
#353 =( NAMED_UNIT ( * ) SI_UNIT ( $, .STERADIAN. ) SOLID_ANGLE_UNIT ( ) );
#354 = CARTESIAN_POINT ( 'NONE',  ( -30.66666666666666100, 65.40000000000000600, 0.0000000000000000000 ) ) ;
#355 = ORIENTED_EDGE ( 'NONE', *, *, #176, .T. ) ;
#356 = APPROVAL_ROLE ( '' ) ;
#357 = CARTESIAN_POINT ( 'NONE',  ( -67.00000000000000000, 87.50000000000000000, 0.0000000000000000000 ) ) ;
#358 = DIRECTION ( 'NONE',  ( 1.309225264888156400E-016, 1.000000000000000000, 0.0000000000000000000 ) ) ;
#359 = CARTESIAN_POINT ( 'NONE',  ( -1.235726496974089900E-014, 1.908774969154810100E-030, 0.0000000000000000000 ) ) ;
#360 = VERTEX_POINT ( 'NONE', #135 ) ;
#361 = FACE_OUTER_BOUND ( 'NONE', #19, .T. ) ;
#362 = PERSON_AND_ORGANIZATION_ROLE ( 'design_supplier' ) ;
#363 = LOCAL_TIME ( 15, 22, 6.000000000000000000, #130 ) ;
#364 = CARTESIAN_POINT ( 'NONE',  ( 0.0000000000000000000, 0.0000000000000000000, 0.0000000000000000000 ) ) ;
#365 = CARTESIAN_POINT ( 'NONE',  ( -92.00000000000000000, 65.40000000000000600, 0.0000000000000000000 ) ) ;
#366 = CARTESIAN_POINT ( 'NONE',  ( -67.00000000000000000, 1.034920941215800000E-014, 0.0000000000000000000 ) ) ;
#367 = SECURITY_CLASSIFICATION_LEVEL ( 'unclassified' ) ;
#368 = ORIENTED_EDGE ( 'NONE', *, *, #52, .F. ) ;
#369 = CARTESIAN_POINT ( 'NONE',  ( -38.00000000000000000, 5.869700860626920100E-015, 0.0000000000000000000 ) ) ;
#370 = AXIS2_PLACEMENT_3D ( 'NONE', #208, #184, #147 ) ;
#371 = CARTESIAN_POINT ( 'NONE',  ( -67.00000000000000000, 106.0000000000000000, 0.0000000000000000000 ) ) ;
#372 = AXIS2_PLACEMENT_3D ( 'NONE', #28, #241, #206 ) ;
#373 = DIRECTION ( 'NONE',  ( 1.309225264888156400E-016, 1.000000000000000000, 0.0000000000000000000 ) ) ;
#374 = CARTESIAN_POINT ( 'NONE',  ( -67.00000000000000000, 106.0000000000000000, 0.0000000000000000000 ) ) ;
#375 = ADVANCED_FACE ( 'NONE', ( #239 ), #349, .T. ) ;
#376 = CONICAL_SURFACE ( 'NONE', #320, 80.00000000000000000, 0.2530756521646019800 ) ;
#377 = CARTESIAN_POINT ( 'NONE',  ( -57.33333333333335700, -84.99999999999997200, -2.081899558550500400E-014 ) ) ;
#378 = CARTESIAN_POINT ( 'NONE',  ( -92.00000000000001400, -105.9999999999999900, -1.298125607096194500E-014 ) ) ;
#379 = CARTESIAN_POINT ( 'NONE',  ( -38.00000000000001400, -80.00000000000000000, -9.797174393178826100E-015 ) ) ;
#380 = ADVANCED_FACE ( 'NONE', ( #173 ), #22, .F. ) ;
#381 = ORIENTED_EDGE ( 'NONE', *, *, #303, .T. ) ;
#382 = FACE_BOUND ( 'NONE', #276, .T. ) ;
#383 = APPROVAL_ROLE ( '' ) ;
#384 = ADVANCED_FACE ( 'NONE', ( #84, #330 ), #71, .T. ) ;
#385 = AXIS2_PLACEMENT_3D ( 'NONE', #186, #288, #123 ) ;
#386 = ORIENTED_EDGE ( 'NONE', *, *, #187, .T. ) ;
#387 = FACE_OUTER_BOUND ( 'NONE', #263, .T. ) ;
ENDSEC;
END-ISO-10303-21;
