ISO-10303-21;
HEADER;
FILE_DESCRIPTION (( 'STEP AP203' ),
    '1' );
FILE_NAME ('581138030.STEP',
    '2017-07-28T19:09:50',
    ( '' ),
    ( '' ),
    'SwSTEP 2.0',
    'SolidWorks 2017',
    '' );
FILE_SCHEMA (( 'CONFIG_CONTROL_DESIGN' ));
ENDSEC;

DATA;
#1 = CALENDAR_DATE ( 2017, 28, 7 ) ;
#2 = DIRECTION ( 'NONE',  ( -6.167905692361941100E-016, 1.000000000000000000, -1.512678871051766500E-015 ) ) ;
#3 = ADVANCED_BREP_SHAPE_REPRESENTATION ( '581138030', ( #104, #78 ), #14 ) ;
#4 = EDGE_CURVE ( 'NONE', #103, #103, #124, .T. ) ;
#5 = EDGE_LOOP ( 'NONE', ( #123 ) ) ;
#6 = ADVANCED_FACE ( 'NONE', ( #192, #147 ), #121, .T. ) ;
#7 = AXIS2_PLACEMENT_3D ( 'NONE', #20, #91, #2 ) ;
#8 = VERTEX_POINT ( 'NONE', #99 ) ;
#9 = APPROVAL_STATUS ( 'not_yet_approved' ) ;
#10 = PERSON_AND_ORGANIZATION ( #130, #106 ) ;
#11 = PERSON_AND_ORGANIZATION ( #130, #106 ) ;
#12 = FACE_OUTER_BOUND ( 'NONE', #46, .T. ) ;
#13 = VERTEX_POINT ( 'NONE', #80 ) ;
#14 =( GEOMETRIC_REPRESENTATION_CONTEXT ( 3 ) GLOBAL_UNCERTAINTY_ASSIGNED_CONTEXT ( ( #186 ) ) GLOBAL_UNIT_ASSIGNED_CONTEXT ( ( #72, #115, #70 ) ) REPRESENTATION_CONTEXT ( 'NONE', 'WORKASPACE' ) );
#15 = PLANE ( 'NONE',  #177 ) ;
#16 = ORIENTED_EDGE ( 'NONE', *, *, #75, .F. ) ;
#17 = PLANE ( 'NONE',  #67 ) ;
#18 = EDGE_LOOP ( 'NONE', ( #187 ) ) ;
#19 = APPLICATION_CONTEXT ( 'configuration controlled 3d designs of mechanical parts and assemblies' ) ;
#20 = CARTESIAN_POINT ( 'NONE',  ( -1.574803149606300600, 0.0000000000000000000, 1.748382715945128500E-014 ) ) ;
#21 = CARTESIAN_POINT ( 'NONE',  ( 0.0000000000000000000, 0.0000000000000000000, 0.0000000000000000000 ) ) ;
#22 = CARTESIAN_POINT ( 'NONE',  ( -3.149606299212602600, 1.448818897637804000, 1.567425104844807500E-014 ) ) ;
#23 = DIRECTION ( 'NONE',  ( 1.000000000000000000, -5.993614530874243600E-016, 4.057709578625995300E-016 ) ) ;
#24 = FACE_OUTER_BOUND ( 'NONE', #83, .T. ) ;
#25 = AXIS2_PLACEMENT_3D ( 'NONE', #231, #205, #217 ) ;
#26 = EDGE_CURVE ( 'NONE', #138, #138, #73, .T. ) ;
#27 = ADVANCED_FACE ( 'NONE', ( #163, #102 ), #98, .T. ) ;
#28 = CIRCLE ( 'NONE', #144, 2.606299212598441400 ) ;
#29 = CALENDAR_DATE ( 2017, 28, 7 ) ;
#30 = CARTESIAN_POINT ( 'NONE',  ( -1.574803149606300600, 0.0000000000000000000, 1.748382715945128500E-014 ) ) ;
#31 = FACE_OUTER_BOUND ( 'NONE', #120, .T. ) ;
#32 = DIRECTION ( 'NONE',  ( 1.000000000000000000, -4.217257691473974800E-016, -4.057709578626070700E-016 ) ) ;
#33 = ADVANCED_FACE ( 'NONE', ( #12, #66 ), #154, .T. ) ;
#34 = CARTESIAN_POINT ( 'NONE',  ( -2.814960629921255700, 0.0000000000000000000, 1.748382715945128500E-014 ) ) ;
#35 = PERSON_AND_ORGANIZATION_ROLE ( 'creator' ) ;
#36 = CC_DESIGN_DATE_AND_TIME_ASSIGNMENT ( #55, #216, ( #161 ) ) ;
#37 = CARTESIAN_POINT ( 'NONE',  ( -3.149606299212601300, 0.0000000000000000000, 1.748382715945128500E-014 ) ) ;
#38 = CARTESIAN_POINT ( 'NONE',  ( -2.480314960629919100, 2.336614173228355600, 8.741913579725642300E-015 ) ) ;
#39 = ORIENTED_EDGE ( 'NONE', *, *, #84, .T. ) ;
#40 = LOCAL_TIME ( 15, 9, 50.00000000000000000, #95 ) ;
#41 = LOCAL_TIME ( 15, 9, 50.00000000000000000, #56 ) ;
#42 = CC_DESIGN_APPROVAL ( #201, ( #179 ) ) ;
#43 = APPROVAL_ROLE ( '' ) ;
#44 = DESIGN_CONTEXT ( 'detailed design', #19, 'design' ) ;
#45 = CARTESIAN_POINT ( 'NONE',  ( -2.480314960629919100, 0.0000000000000000000, 1.748382715945128500E-014 ) ) ;
#46 = EDGE_LOOP ( 'NONE', ( #141 ) ) ;
#47 = CALENDAR_DATE ( 2017, 28, 7 ) ;
#48 = LOCAL_TIME ( 15, 9, 50.00000000000000000, #68 ) ;
#49 = ORIENTED_EDGE ( 'NONE', *, *, #230, .T. ) ;
#50 = AXIS2_PLACEMENT_3D ( 'NONE', #37, #207, #117 ) ;
#51 = PRODUCT_DEFINITION_FORMATION_WITH_SPECIFIED_SOURCE ( 'ANY', '', #202, .NOT_KNOWN. ) ;
#52 = CLOSED_SHELL ( 'NONE', ( #27, #175, #125, #203, #61, #6, #33 ) ) ;
#53 = CC_DESIGN_SECURITY_CLASSIFICATION ( #179, ( #51 ) ) ;
#54 = DATE_TIME_ROLE ( 'classification_date' ) ;
#55 = DATE_AND_TIME ( #29, #41 ) ;
#56 = COORDINATED_UNIVERSAL_TIME_OFFSET ( 5, 0, .BEHIND. ) ;
#57 = APPLICATION_PROTOCOL_DEFINITION ( 'international standard', 'config_control_design', 1994, #165 ) ;
#58 = DIMENSIONAL_EXPONENTS ( 1.000000000000000000, 0.0000000000000000000, 0.0000000000000000000, 0.0000000000000000000, 0.0000000000000000000, 0.0000000000000000000, 0.0000000000000000000 ) ;
#59 = DIRECTION ( 'NONE',  ( 7.930164461608216100E-016, -1.000000000000000000, 1.249000902703294200E-015 ) ) ;
#60 = LOCAL_TIME ( 15, 9, 50.00000000000000000, #184 ) ;
#61 = ADVANCED_FACE ( 'NONE', ( #151, #24 ), #17, .T. ) ;
#62 = FACE_OUTER_BOUND ( 'NONE', #18, .T. ) ;
#63 = CARTESIAN_POINT ( 'NONE',  ( -0.7874015748031503200, 0.0000000000000000000, 0.0000000000000000000 ) ) ;
#64 = EDGE_LOOP ( 'NONE', ( #221 ) ) ;
#65 = CARTESIAN_POINT ( 'NONE',  ( 0.0000000000000000000, 0.0000000000000000000, 0.0000000000000000000 ) ) ;
#66 = FACE_OUTER_BOUND ( 'NONE', #5, .T. ) ;
#67 = AXIS2_PLACEMENT_3D ( 'NONE', #220, #178, #135 ) ;
#68 = COORDINATED_UNIVERSAL_TIME_OFFSET ( 5, 0, .BEHIND. ) ;
#69 = AXIS2_PLACEMENT_3D ( 'NONE', #210, #193, #89 ) ;
#70 =( NAMED_UNIT ( * ) SI_UNIT ( $, .STERADIAN. ) SOLID_ANGLE_UNIT ( ) );
#71 = PERSON_AND_ORGANIZATION_ROLE ( 'design_supplier' ) ;
#72 =( CONVERSION_BASED_UNIT ( 'INCH', #158 ) LENGTH_UNIT ( ) NAMED_UNIT ( #58 ) );
#73 = CIRCLE ( 'NONE', #215, 1.771653543307097200 ) ;
#74 = PERSON_AND_ORGANIZATION_ROLE ( 'creator' ) ;
#75 = EDGE_CURVE ( 'NONE', #214, #214, #109, .T. ) ;
#76 = APPROVAL ( #116, 'UNSPECIFIED' ) ;
#77 = CYLINDRICAL_SURFACE ( 'NONE', #168, 1.448818897637804000 ) ;
#78 = AXIS2_PLACEMENT_3D ( 'NONE', #21, #134, #82 ) ;
#79 = AXIS2_PLACEMENT_3D ( 'NONE', #173, #208, #113 ) ;
#80 = CARTESIAN_POINT ( 'NONE',  ( -1.574803149606301700, 1.771653543307098100, 1.480388427766664300E-014 ) ) ;
#81 = ORIENTED_EDGE ( 'NONE', *, *, #4, .T. ) ;
#82 = DIRECTION ( 'NONE',  ( 1.000000000000000000, 0.0000000000000000000, 0.0000000000000000000 ) ) ;
#83 = EDGE_LOOP ( 'NONE', ( #157 ) ) ;
#84 = EDGE_CURVE ( 'NONE', #225, #225, #85, .T. ) ;
#85 = CIRCLE ( 'NONE', #122, 1.448818897637804000 ) ;
#86 = CC_DESIGN_APPROVAL ( #76, ( #51 ) ) ;
#87 = DIRECTION ( 'NONE',  ( 1.000000000000000000, -4.217257691473974800E-016, -4.057709578626070700E-016 ) ) ;
#88 = CC_DESIGN_PERSON_AND_ORGANIZATION_ASSIGNMENT ( #11, #129, ( #202 ) ) ;
#89 = DIRECTION ( 'NONE',  ( -4.057709578626002700E-016, -1.221245327087659000E-015, 1.000000000000000000 ) ) ;
#90 = PERSON_AND_ORGANIZATION ( #130, #106 ) ;
#91 = DIRECTION ( 'NONE',  ( -1.000000000000000000, 4.217257691473974800E-016, 4.057709578626070700E-016 ) ) ;
#92 = FACE_BOUND ( 'NONE', #218, .T. ) ;
#93 = FACE_OUTER_BOUND ( 'NONE', #198, .T. ) ;
#94 = PRODUCT_RELATED_PRODUCT_CATEGORY ( 'detail', '', ( #202 ) ) ;
#95 = COORDINATED_UNIVERSAL_TIME_OFFSET ( 5, 0, .BEHIND. ) ;
#96 = DATE_AND_TIME ( #140, #48 ) ;
#97 = EDGE_LOOP ( 'NONE', ( #39 ) ) ;
#98 = PLANE ( 'NONE',  #69 ) ;
#99 = CARTESIAN_POINT ( 'NONE',  ( -1.125728135535828200E-015, 1.448818897637804000, -1.809576111003207800E-015 ) ) ;
#100 = EDGE_LOOP ( 'NONE', ( #81 ) ) ;
#101 = DIRECTION ( 'NONE',  ( 4.057709578626002700E-016, 1.221245327087659000E-015, -1.000000000000000000 ) ) ;
#102 = FACE_BOUND ( 'NONE', #97, .T. ) ;
#103 = VERTEX_POINT ( 'NONE', #153 ) ;
#104 = MANIFOLD_SOLID_BREP ( '1', #52 ) ;
#105 = LOCAL_TIME ( 15, 9, 50.00000000000000000, #139 ) ;
#106 = ORGANIZATION ( 'UNSPECIFIED', 'UNSPECIFIED', '' ) ;
#107 = ORIENTED_EDGE ( 'NONE', *, *, #4, .F. ) ;
#108 = ORIENTED_EDGE ( 'NONE', *, *, #213, .T. ) ;
#109 = CIRCLE ( 'NONE', #232, 2.066929133858279600 ) ;
#110 =( LENGTH_UNIT ( ) NAMED_UNIT ( * ) SI_UNIT ( $, .METRE. ) );
#111 = EDGE_CURVE ( 'NONE', #114, #114, #28, .T. ) ;
#112 = APPLICATION_PROTOCOL_DEFINITION ( 'international standard', 'config_control_design', 1994, #19 ) ;
#113 = DIRECTION ( 'NONE',  ( 7.930164461608216100E-016, -1.000000000000000000, 1.249000902703294200E-015 ) ) ;
#114 = VERTEX_POINT ( 'NONE', #149 ) ;
#115 =( NAMED_UNIT ( * ) PLANE_ANGLE_UNIT ( ) SI_UNIT ( $, .RADIAN. ) );
#116 = APPROVAL_STATUS ( 'not_yet_approved' ) ;
#117 = DIRECTION ( 'NONE',  ( -8.385370276624997800E-016, 1.000000000000000000, -1.249000902703293600E-015 ) ) ;
#118 = CIRCLE ( 'NONE', #25, 1.448818897637804000 ) ;
#119 = DIRECTION ( 'NONE',  ( 1.000000000000000000, -4.217257691473974800E-016, -4.057709578626070700E-016 ) ) ;
#120 = EDGE_LOOP ( 'NONE', ( #137 ) ) ;
#121 = CONICAL_SURFACE ( 'NONE', #79, 2.066929133858279600, 0.3152146997507099300 ) ;
#122 = AXIS2_PLACEMENT_3D ( 'NONE', #219, #185, #145 ) ;
#123 = ORIENTED_EDGE ( 'NONE', *, *, #26, .F. ) ;
#124 = CIRCLE ( 'NONE', #50, 2.606299212598441400 ) ;
#125 = ADVANCED_FACE ( 'NONE', ( #195, #209 ), #77, .F. ) ;
#126 = ORIENTED_EDGE ( 'NONE', *, *, #75, .T. ) ;
#127 = DIRECTION ( 'NONE',  ( -1.000000000000000000, 4.217257691473974800E-016, 4.057709578626070700E-016 ) ) ;
#128 = DATE_AND_TIME ( #164, #40 ) ;
#129 = PERSON_AND_ORGANIZATION_ROLE ( 'design_owner' ) ;
#130 = PERSON ( 'UNSPECIFIED', 'UNSPECIFIED', 'UNSPECIFIED', ('UNSPECIFIED'), ('UNSPECIFIED'), ('UNSPECIFIED') ) ;
#131 = DIRECTION ( 'NONE',  ( -7.769971370274419700E-016, 1.000000000000000000, -1.249000902703293600E-015 ) ) ;
#132 = CYLINDRICAL_SURFACE ( 'NONE', #159, 2.606299212598441400 ) ;
#133 = APPROVAL_PERSON_ORGANIZATION ( #90, #172, #43 ) ;
#134 = DIRECTION ( 'NONE',  ( 0.0000000000000000000, 0.0000000000000000000, 1.000000000000000000 ) ) ;
#135 = DIRECTION ( 'NONE',  ( 4.057709578626002700E-016, 1.221245327087659000E-015, -1.000000000000000000 ) ) ;
#136 = DIRECTION ( 'NONE',  ( -8.385370276624997800E-016, 1.000000000000000000, -1.249000902703293600E-015 ) ) ;
#137 = ORIENTED_EDGE ( 'NONE', *, *, #111, .F. ) ;
#138 = VERTEX_POINT ( 'NONE', #156 ) ;
#139 = COORDINATED_UNIVERSAL_TIME_OFFSET ( 5, 0, .BEHIND. ) ;
#140 = CALENDAR_DATE ( 2017, 28, 7 ) ;
#141 = ORIENTED_EDGE ( 'NONE', *, *, #230, .F. ) ;
#142 = CARTESIAN_POINT ( 'NONE',  ( -2.480314960629928000, 0.0000000000000000000, 1.748382715945128500E-014 ) ) ;
#143 = EDGE_LOOP ( 'NONE', ( #16 ) ) ;
#144 = AXIS2_PLACEMENT_3D ( 'NONE', #142, #127, #181 ) ;
#145 = DIRECTION ( 'NONE',  ( -7.542275982507811800E-016, 1.000000000000000000, -1.249000902703294000E-015 ) ) ;
#146 = DIRECTION ( 'NONE',  ( 1.000000000000000000, -4.217257691473974800E-016, -4.057709578626070700E-016 ) ) ;
#147 = FACE_BOUND ( 'NONE', #227, .T. ) ;
#148 = PRODUCT_DEFINITION_SHAPE ( 'NONE', 'NONE',  #161 ) ;
#149 = CARTESIAN_POINT ( 'NONE',  ( -2.480314960629930200, 2.606299212598441400, 1.422855709020094700E-014 ) ) ;
#150 = APPROVAL_STATUS ( 'not_yet_approved' ) ;
#151 = FACE_BOUND ( 'NONE', #226, .T. ) ;
#152 = SHAPE_DEFINITION_REPRESENTATION ( #148, #3 ) ;
#153 = CARTESIAN_POINT ( 'NONE',  ( -3.149606299212603500, 2.606299212598441400, 1.422855709020094700E-014 ) ) ;
#154 = CYLINDRICAL_SURFACE ( 'NONE', #200, 1.771653543307097200 ) ;
#155 = APPROVAL_ROLE ( '' ) ;
#156 = CARTESIAN_POINT ( 'NONE',  ( -1.376569730954137800E-015, 1.771653543307097200, -2.212796874868053300E-015 ) ) ;
#157 = ORIENTED_EDGE ( 'NONE', *, *, #26, .T. ) ;
#158 = LENGTH_MEASURE_WITH_UNIT ( LENGTH_MEASURE( 0.02539999999999999900 ), #110 );
#159 = AXIS2_PLACEMENT_3D ( 'NONE', #34, #119, #136 ) ;
#160 = CC_DESIGN_PERSON_AND_ORGANIZATION_ASSIGNMENT ( #10, #35, ( #51 ) ) ;
#161 = PRODUCT_DEFINITION ( 'UNKNOWN', '', #51, #44 ) ;
#162 = CARTESIAN_POINT ( 'NONE',  ( -2.480314960629917700, -2.066929133858279600, 2.006542351346401300E-014 ) ) ;
#163 = FACE_OUTER_BOUND ( 'NONE', #100, .T. ) ;
#164 = CALENDAR_DATE ( 2017, 28, 7 ) ;
#165 = APPLICATION_CONTEXT ( 'configuration controlled 3d designs of mechanical parts and assemblies' ) ;
#166 = CIRCLE ( 'NONE', #7, 1.771653543307098100 ) ;
#167 = SECURITY_CLASSIFICATION_LEVEL ( 'unclassified' ) ;
#168 = AXIS2_PLACEMENT_3D ( 'NONE', #30, #146, #170 ) ;
#169 = CC_DESIGN_PERSON_AND_ORGANIZATION_ASSIGNMENT ( #180, #71, ( #51 ) ) ;
#170 = DIRECTION ( 'NONE',  ( -7.542275982507811800E-016, 1.000000000000000000, -1.249000902703294000E-015 ) ) ;
#171 = DATE_AND_TIME ( #47, #105 ) ;
#172 = APPROVAL ( #9, 'UNSPECIFIED' ) ;
#173 = CARTESIAN_POINT ( 'NONE',  ( -2.480314960629919100, 0.0000000000000000000, 1.748382715945128500E-014 ) ) ;
#174 = PERSON_AND_ORGANIZATION ( #130, #106 ) ;
#175 = ADVANCED_FACE ( 'NONE', ( #93, #62 ), #132, .T. ) ;
#176 = PERSON_AND_ORGANIZATION ( #130, #106 ) ;
#177 = AXIS2_PLACEMENT_3D ( 'NONE', #38, #23, #101 ) ;
#178 = DIRECTION ( 'NONE',  ( 1.000000000000000000, -5.993614530874243600E-016, 4.057709578625995300E-016 ) ) ;
#179 = SECURITY_CLASSIFICATION ( '', '', #167 ) ;
#180 = PERSON_AND_ORGANIZATION ( #130, #106 ) ;
#181 = DIRECTION ( 'NONE',  ( -8.385370276624997800E-016, 1.000000000000000000, -1.249000902703293600E-015 ) ) ;
#182 = CC_DESIGN_APPROVAL ( #172, ( #161 ) ) ;
#183 = CC_DESIGN_DATE_AND_TIME_ASSIGNMENT ( #171, #54, ( #179 ) ) ;
#184 = COORDINATED_UNIVERSAL_TIME_OFFSET ( 5, 0, .BEHIND. ) ;
#185 = DIRECTION ( 'NONE',  ( 1.000000000000000000, -4.217257691473974800E-016, -4.057709578626070700E-016 ) ) ;
#186 = UNCERTAINTY_MEASURE_WITH_UNIT (LENGTH_MEASURE( 1.000000000000000100E-005 ), #72, 'distance_accuracy_value', 'NONE');
#187 = ORIENTED_EDGE ( 'NONE', *, *, #111, .T. ) ;
#188 = APPROVAL_ROLE ( '' ) ;
#189 = DATE_AND_TIME ( #1, #60 ) ;
#190 = PERSON_AND_ORGANIZATION ( #130, #106 ) ;
#191 = CC_DESIGN_PERSON_AND_ORGANIZATION_ASSIGNMENT ( #228, #211, ( #179 ) ) ;
#192 = FACE_OUTER_BOUND ( 'NONE', #143, .T. ) ;
#193 = DIRECTION ( 'NONE',  ( -1.000000000000000000, 5.993614530874243600E-016, -4.057709578625995300E-016 ) ) ;
#194 = DIRECTION ( 'NONE',  ( -7.709882115452429800E-016, 1.000000000000000000, -1.249000902703293600E-015 ) ) ;
#195 = FACE_OUTER_BOUND ( 'NONE', #64, .T. ) ;
#196 = EDGE_LOOP ( 'NONE', ( #204 ) ) ;
#197 = APPROVAL_PERSON_ORGANIZATION ( #174, #201, #155 ) ;
#198 = EDGE_LOOP ( 'NONE', ( #107 ) ) ;
#199 = CC_DESIGN_PERSON_AND_ORGANIZATION_ASSIGNMENT ( #190, #74, ( #161 ) ) ;
#200 = AXIS2_PLACEMENT_3D ( 'NONE', #63, #32, #194 ) ;
#201 = APPROVAL ( #150, 'UNSPECIFIED' ) ;
#202 = PRODUCT ( '581138030', '581138030', '', ( #224 ) ) ;
#203 = ADVANCED_FACE ( 'NONE', ( #92, #31 ), #15, .T. ) ;
#204 = ORIENTED_EDGE ( 'NONE', *, *, #84, .F. ) ;
#205 = DIRECTION ( 'NONE',  ( -1.000000000000000000, 4.217257691473974800E-016, 4.057709578626070700E-016 ) ) ;
#206 = APPROVAL_DATE_TIME ( #128, #201 ) ;
#207 = DIRECTION ( 'NONE',  ( -1.000000000000000000, 4.217257691473974800E-016, 4.057709578626070700E-016 ) ) ;
#208 = DIRECTION ( 'NONE',  ( -1.000000000000000000, 4.671920453939518400E-016, 4.057709578626071700E-016 ) ) ;
#209 = FACE_OUTER_BOUND ( 'NONE', #196, .T. ) ;
#210 = CARTESIAN_POINT ( 'NONE',  ( -3.149606299212601300, 2.027559055118114200, 1.092739197465705300E-014 ) ) ;
#211 = PERSON_AND_ORGANIZATION_ROLE ( 'classification_officer' ) ;
#212 = APPROVAL_DATE_TIME ( #189, #76 ) ;
#213 = EDGE_CURVE ( 'NONE', #8, #8, #118, .T. ) ;
#214 = VERTEX_POINT ( 'NONE', #162 ) ;
#215 = AXIS2_PLACEMENT_3D ( 'NONE', #65, #87, #131 ) ;
#216 = DATE_TIME_ROLE ( 'creation_date' ) ;
#217 = DIRECTION ( 'NONE',  ( -7.769971370274419700E-016, 1.000000000000000000, -1.249000902703293600E-015 ) ) ;
#218 = EDGE_LOOP ( 'NONE', ( #126 ) ) ;
#219 = CARTESIAN_POINT ( 'NONE',  ( -3.149606299212601300, 0.0000000000000000000, 1.748382715945128500E-014 ) ) ;
#220 = CARTESIAN_POINT ( 'NONE',  ( 0.0000000000000000000, 1.610236220472447200, -2.404026234424551500E-014 ) ) ;
#221 = ORIENTED_EDGE ( 'NONE', *, *, #213, .F. ) ;
#222 = APPROVAL_PERSON_ORGANIZATION ( #176, #76, #188 ) ;
#223 = DIRECTION ( 'NONE',  ( -1.000000000000000000, 4.671920453939518400E-016, 4.057709578626071700E-016 ) ) ;
#224 = MECHANICAL_CONTEXT ( 'NONE', #165, 'mechanical' ) ;
#225 = VERTEX_POINT ( 'NONE', #22 ) ;
#226 = EDGE_LOOP ( 'NONE', ( #108 ) ) ;
#227 = EDGE_LOOP ( 'NONE', ( #49 ) ) ;
#228 = PERSON_AND_ORGANIZATION ( #130, #106 ) ;
#229 = APPROVAL_DATE_TIME ( #96, #172 ) ;
#230 = EDGE_CURVE ( 'NONE', #13, #13, #166, .T. ) ;
#231 = CARTESIAN_POINT ( 'NONE',  ( 0.0000000000000000000, 0.0000000000000000000, 0.0000000000000000000 ) ) ;
#232 = AXIS2_PLACEMENT_3D ( 'NONE', #45, #223, #59 ) ;
ENDSEC;
END-ISO-10303-21;
