ISO-10303-21;
HEADER;
FILE_DESCRIPTION (( 'STEP AP203' ),
    '1' );
FILE_NAME ('589161120.STEP',
    '2017-08-01T13:43:11',
    ( '' ),
    ( '' ),
    'SwSTEP 2.0',
    'SolidWorks 2017',
    '' );
FILE_SCHEMA (( 'CONFIG_CONTROL_DESIGN' ));
ENDSEC;

DATA;
#1 = CYLINDRICAL_SURFACE ( 'NONE', #360, 6.200000000000000200 ) ;
#2 = PERSON_AND_ORGANIZATION ( #78, #282 ) ;
#3 = CC_DESIGN_PERSON_AND_ORGANIZATION_ASSIGNMENT ( #8, #280, ( #90 ) ) ;
#4 = AXIS2_PLACEMENT_3D ( 'NONE', #70, #25, #7 ) ;
#5 =( CONVERSION_BASED_UNIT ( 'INCH', #81 ) LENGTH_UNIT ( ) NAMED_UNIT ( #23 ) );
#6 = EDGE_LOOP ( 'NONE', ( #143 ) ) ;
#7 = DIRECTION ( 'NONE',  ( 1.000000000000000000, 0.0000000000000000000, 0.0000000000000000000 ) ) ;
#8 = PERSON_AND_ORGANIZATION ( #78, #282 ) ;
#9 = DIRECTION ( 'NONE',  ( 0.0000000000000000000, 0.0000000000000000000, 1.000000000000000000 ) ) ;
#10 = CARTESIAN_POINT ( 'NONE',  ( 0.0000000000000000000, 0.0000000000000000000, 0.0000000000000000000 ) ) ;
#11 = AXIS2_PLACEMENT_3D ( 'NONE', #96, #176, #200 ) ;
#12 = FACE_BOUND ( 'NONE', #18, .T. ) ;
#13 = LOCAL_TIME ( 9, 43, 11.00000000000000000, #69 ) ;
#14 = AXIS2_PLACEMENT_3D ( 'NONE', #161, #173, #177 ) ;
#15 = CARTESIAN_POINT ( 'NONE',  ( 0.0000000000000000000, 0.0000000000000000000, 0.0000000000000000000 ) ) ;
#16 = CARTESIAN_POINT ( 'NONE',  ( 0.0000000000000000000, 0.0000000000000000000, -1.579999999999999800 ) ) ;
#17 = ORIENTED_EDGE ( 'NONE', *, *, #180, .F. ) ;
#18 = EDGE_LOOP ( 'NONE', ( #268 ) ) ;
#19 = ORIENTED_EDGE ( 'NONE', *, *, #180, .T. ) ;
#20 = AXIS2_PLACEMENT_3D ( 'NONE', #356, #97, #372 ) ;
#21 = CARTESIAN_POINT ( 'NONE',  ( 0.0000000000000000000, 0.0000000000000000000, -1.803997569425681600 ) ) ;
#22 = FACE_OUTER_BOUND ( 'NONE', #332, .T. ) ;
#23 = DIMENSIONAL_EXPONENTS ( 1.000000000000000000, 0.0000000000000000000, 0.0000000000000000000, 0.0000000000000000000, 0.0000000000000000000, 0.0000000000000000000, 0.0000000000000000000 ) ;
#24 = CARTESIAN_POINT ( 'NONE',  ( 6.699999999999999300, 0.0000000000000000000, -1.579999999999999800 ) ) ;
#25 = DIRECTION ( 'NONE',  ( -0.0000000000000000000, -0.0000000000000000000, 1.000000000000000000 ) ) ;
#26 = AXIS2_PLACEMENT_3D ( 'NONE', #263, #284, #37 ) ;
#27 = APPROVAL_PERSON_ORGANIZATION ( #145, #149, #277 ) ;
#28 = CARTESIAN_POINT ( 'NONE',  ( 6.239478791400459900, 0.0000000000000000000, 1.747616012178526900 ) ) ;
#29 = APPLICATION_PROTOCOL_DEFINITION ( 'international standard', 'config_control_design', 1994, #253 ) ;
#30 = ORIENTED_EDGE ( 'NONE', *, *, #246, .T. ) ;
#31 = VERTEX_POINT ( 'NONE', #226 ) ;
#32 = VERTEX_POINT ( 'NONE', #117 ) ;
#33 = CARTESIAN_POINT ( 'NONE',  ( 0.0000000000000000000, 0.0000000000000000000, 3.499999999999999100 ) ) ;
#34 = DIRECTION ( 'NONE',  ( 0.0000000000000000000, 0.0000000000000000000, -1.000000000000000000 ) ) ;
#35 = DIRECTION ( 'NONE',  ( 1.000000000000000000, 0.0000000000000000000, 0.0000000000000000000 ) ) ;
#36 = CIRCLE ( 'NONE', #181, 6.699999999999999300 ) ;
#37 = DIRECTION ( 'NONE',  ( 1.000000000000000000, 0.0000000000000000000, 0.0000000000000000000 ) ) ;
#38 = APPROVAL_DATE_TIME ( #172, #87 ) ;
#39 = VERTEX_POINT ( 'NONE', #24 ) ;
#40 = PRODUCT_DEFINITION_FORMATION_WITH_SPECIFIED_SOURCE ( 'ANY', '', #100, .NOT_KNOWN. ) ;
#41 = DIRECTION ( 'NONE',  ( -0.0000000000000000000, -0.0000000000000000000, 1.000000000000000000 ) ) ;
#42 = CYLINDRICAL_SURFACE ( 'NONE', #273, 6.700000000000000200 ) ;
#43 = CC_DESIGN_APPROVAL ( #87, ( #40 ) ) ;
#44 = EDGE_LOOP ( 'NONE', ( #196 ) ) ;
#45 = EDGE_CURVE ( 'NONE', #39, #39, #36, .T. ) ;
#46 = FACE_OUTER_BOUND ( 'NONE', #322, .T. ) ;
#47 = CARTESIAN_POINT ( 'NONE',  ( 0.0000000000000000000, 0.0000000000000000000, 0.0000000000000000000 ) ) ;
#48 = ORIENTED_EDGE ( 'NONE', *, *, #371, .F. ) ;
#49 = MANIFOLD_SOLID_BREP ( 'Mirror1', #191 ) ;
#50 = DIRECTION ( 'NONE',  ( -1.000000000000000000, 0.0000000000000000000, -0.0000000000000000000 ) ) ;
#51 = CIRCLE ( 'NONE', #293, 6.200000000000000200 ) ;
#52 = ADVANCED_FACE ( 'NONE', ( #133, #324 ), #122, .T. ) ;
#53 = CARTESIAN_POINT ( 'NONE',  ( 5.074000000000000700, 0.0000000000000000000, 3.499999999999999100 ) ) ;
#54 = FACE_OUTER_BOUND ( 'NONE', #207, .T. ) ;
#55 = CARTESIAN_POINT ( 'NONE',  ( 6.699999999999999300, 0.0000000000000000000, 1.579999999999999800 ) ) ;
#56 = APPROVAL_DATE_TIME ( #274, #331 ) ;
#57 = CC_DESIGN_DATE_AND_TIME_ASSIGNMENT ( #223, #65, ( #90 ) ) ;
#58 = CC_DESIGN_PERSON_AND_ORGANIZATION_ASSIGNMENT ( #345, #135, ( #93 ) ) ;
#59 = ORIENTED_EDGE ( 'NONE', *, *, #258, .T. ) ;
#60 = ORIENTED_EDGE ( 'NONE', *, *, #150, .T. ) ;
#61 = FACE_BOUND ( 'NONE', #260, .T. ) ;
#62 = CC_DESIGN_APPROVAL ( #331, ( #93 ) ) ;
#63 = FACE_OUTER_BOUND ( 'NONE', #182, .T. ) ;
#64 = LOCAL_TIME ( 9, 43, 11.00000000000000000, #195 ) ;
#65 = DATE_TIME_ROLE ( 'creation_date' ) ;
#66 = AXIS2_PLACEMENT_3D ( 'NONE', #76, #355, #276 ) ;
#67 = ORIENTED_EDGE ( 'NONE', *, *, #233, .T. ) ;
#68 = EDGE_LOOP ( 'NONE', ( #351 ) ) ;
#69 = COORDINATED_UNIVERSAL_TIME_OFFSET ( 5, 0, .BEHIND. ) ;
#70 = CARTESIAN_POINT ( 'NONE',  ( 0.0000000000000000000, 0.0000000000000000000, 0.0000000000000000000 ) ) ;
#71 = DIRECTION ( 'NONE',  ( 1.000000000000000000, 0.0000000000000000000, 0.0000000000000000000 ) ) ;
#72 = CC_DESIGN_APPROVAL ( #149, ( #90 ) ) ;
#73 = DIRECTION ( 'NONE',  ( 1.000000000000000000, 0.0000000000000000000, 0.0000000000000000000 ) ) ;
#74 = CARTESIAN_POINT ( 'NONE',  ( 0.0000000000000000000, 0.0000000000000000000, 1.803997569425681600 ) ) ;
#75 = CARTESIAN_POINT ( 'NONE',  ( 0.0000000000000000000, 0.0000000000000000000, -1.747616012178526900 ) ) ;
#76 = CARTESIAN_POINT ( 'NONE',  ( 0.0000000000000000000, 0.0000000000000000000, -1.199999999999999700 ) ) ;
#77 = TOROIDAL_SURFACE ( 'NONE', #254, 6.260000000000000700, 0.05999999999999997700 ) ;
#78 = PERSON ( 'UNSPECIFIED', 'UNSPECIFIED', 'UNSPECIFIED', ('UNSPECIFIED'), ('UNSPECIFIED'), ('UNSPECIFIED') ) ;
#79 = CC_DESIGN_PERSON_AND_ORGANIZATION_ASSIGNMENT ( #113, #224, ( #100 ) ) ;
#80 = ORIENTED_EDGE ( 'NONE', *, *, #45, .F. ) ;
#81 = LENGTH_MEASURE_WITH_UNIT ( LENGTH_MEASURE( 0.02539999999999999900 ), #132 );
#82 = FACE_OUTER_BOUND ( 'NONE', #311, .T. ) ;
#83 = DIRECTION ( 'NONE',  ( -0.0000000000000000000, -0.0000000000000000000, 1.000000000000000000 ) ) ;
#84 = CYLINDRICAL_SURFACE ( 'NONE', #320, 6.700000000000000200 ) ;
#85 = EDGE_LOOP ( 'NONE', ( #67 ) ) ;
#86 = EDGE_LOOP ( 'NONE', ( #124 ) ) ;
#87 = APPROVAL ( #203, 'UNSPECIFIED' ) ;
#88 = CARTESIAN_POINT ( 'NONE',  ( 0.0000000000000000000, 0.0000000000000000000, 1.803997569425681600 ) ) ;
#89 = CALENDAR_DATE ( 2017, 1, 8 ) ;
#90 = PRODUCT_DEFINITION ( 'UNKNOWN', '', #40, #364 ) ;
#91 = DIRECTION ( 'NONE',  ( 1.000000000000000000, 0.0000000000000000000, 0.0000000000000000000 ) ) ;
#92 = DIRECTION ( 'NONE',  ( -0.0000000000000000000, -0.0000000000000000000, 1.000000000000000000 ) ) ;
#93 = SECURITY_CLASSIFICATION ( '', '', #247 ) ;
#94 = CIRCLE ( 'NONE', #346, 6.200000000000000200 ) ;
#95 = LOCAL_TIME ( 9, 43, 11.00000000000000000, #218 ) ;
#96 = CARTESIAN_POINT ( 'NONE',  ( 0.0000000000000000000, 0.0000000000000000000, 1.200000000000000000 ) ) ;
#97 = DIRECTION ( 'NONE',  ( 0.0000000000000000000, 0.0000000000000000000, -1.000000000000000000 ) ) ;
#98 = FACE_OUTER_BOUND ( 'NONE', #85, .T. ) ;
#99 = DIRECTION ( 'NONE',  ( 1.000000000000000000, 0.0000000000000000000, 0.0000000000000000000 ) ) ;
#100 = PRODUCT ( '589161120', '589161120', '', ( #317 ) ) ;
#101 = ADVANCED_FACE ( 'NONE', ( #103, #189 ), #352, .F. ) ;
#102 = EDGE_LOOP ( 'NONE', ( #370 ) ) ;
#103 = FACE_OUTER_BOUND ( 'NONE', #6, .T. ) ;
#104 = VERTEX_POINT ( 'NONE', #210 ) ;
#105 = VERTEX_POINT ( 'NONE', #53 ) ;
#106 = DIRECTION ( 'NONE',  ( -0.0000000000000000000, -0.0000000000000000000, 1.000000000000000000 ) ) ;
#107 = CIRCLE ( 'NONE', #365, 6.200000000000000200 ) ;
#108 = ADVANCED_FACE ( 'NONE', ( #116, #245 ), #307, .F. ) ;
#109 = CARTESIAN_POINT ( 'NONE',  ( 0.0000000000000000000, 0.0000000000000000000, -1.200000000000000000 ) ) ;
#110 = DIRECTION ( 'NONE',  ( 0.0000000000000000000, 0.0000000000000000000, -1.000000000000000000 ) ) ;
#111 = CYLINDRICAL_SURFACE ( 'NONE', #4, 5.074000000000000700 ) ;
#112 = CARTESIAN_POINT ( 'NONE',  ( 0.0000000000000000000, 0.0000000000000000000, 3.500000000000000000 ) ) ;
#113 = PERSON_AND_ORGANIZATION ( #78, #282 ) ;
#114 = PERSON_AND_ORGANIZATION ( #78, #282 ) ;
#115 = CARTESIAN_POINT ( 'NONE',  ( 6.700000000000000200, 0.0000000000000000000, -1.200000000000000000 ) ) ;
#116 = FACE_BOUND ( 'NONE', #68, .T. ) ;
#117 = CARTESIAN_POINT ( 'NONE',  ( 6.200000000000000200, 0.0000000000000000000, 1.803997569425681600 ) ) ;
#118 = DIRECTION ( 'NONE',  ( -0.0000000000000000000, -0.0000000000000000000, 1.000000000000000000 ) ) ;
#119 = EDGE_LOOP ( 'NONE', ( #315 ) ) ;
#120 = EDGE_CURVE ( 'NONE', #361, #361, #257, .T. ) ;
#121 = FACE_OUTER_BOUND ( 'NONE', #239, .T. ) ;
#122 = CONICAL_SURFACE ( 'NONE', #313, 6.699999999999999300, 1.221730476396033900 ) ;
#123 = EDGE_CURVE ( 'NONE', #335, #335, #107, .T. ) ;
#124 = ORIENTED_EDGE ( 'NONE', *, *, #243, .T. ) ;
#125 = EDGE_LOOP ( 'NONE', ( #298 ) ) ;
#126 = FACE_OUTER_BOUND ( 'NONE', #227, .T. ) ;
#127 = DIRECTION ( 'NONE',  ( 1.000000000000000000, 0.0000000000000000000, 0.0000000000000000000 ) ) ;
#128 = ADVANCED_FACE ( 'NONE', ( #61, #46 ), #350, .F. ) ;
#129 = FACE_OUTER_BOUND ( 'NONE', #134, .T. ) ;
#130 = CALENDAR_DATE ( 2017, 1, 8 ) ;
#131 = ADVANCED_FACE ( 'NONE', ( #304, #178 ), #84, .T. ) ;
#132 =( LENGTH_UNIT ( ) NAMED_UNIT ( * ) SI_UNIT ( $, .METRE. ) );
#133 = FACE_BOUND ( 'NONE', #125, .T. ) ;
#134 = EDGE_LOOP ( 'NONE', ( #314 ) ) ;
#135 = PERSON_AND_ORGANIZATION_ROLE ( 'classification_officer' ) ;
#136 = CIRCLE ( 'NONE', #318, 6.239478791400459900 ) ;
#137 = DATE_AND_TIME ( #286, #64 ) ;
#138 = EDGE_LOOP ( 'NONE', ( #19 ) ) ;
#139 = PERSON_AND_ORGANIZATION ( #78, #282 ) ;
#140 = CARTESIAN_POINT ( 'NONE',  ( 6.200000000000000200, 0.0000000000000000000, -1.199999999999999700 ) ) ;
#141 = AXIS2_PLACEMENT_3D ( 'NONE', #75, #347, #334 ) ;
#142 = CARTESIAN_POINT ( 'NONE',  ( 0.0000000000000000000, 0.0000000000000000000, -1.579999999999999800 ) ) ;
#143 = ORIENTED_EDGE ( 'NONE', *, *, #230, .F. ) ;
#144 = CARTESIAN_POINT ( 'NONE',  ( 0.0000000000000000000, 0.0000000000000000000, 1.747616012178526900 ) ) ;
#145 = PERSON_AND_ORGANIZATION ( #78, #282 ) ;
#146 = DIRECTION ( 'NONE',  ( 1.000000000000000000, 0.0000000000000000000, 0.0000000000000000000 ) ) ;
#147 = ORIENTED_EDGE ( 'NONE', *, *, #302, .F. ) ;
#148 = DIRECTION ( 'NONE',  ( 1.000000000000000000, 0.0000000000000000000, 0.0000000000000000000 ) ) ;
#149 = APPROVAL ( #278, 'UNSPECIFIED' ) ;
#150 = EDGE_CURVE ( 'NONE', #105, #105, #154, .T. ) ;
#151 = CIRCLE ( 'NONE', #321, 6.200000000000000200 ) ;
#152 = EDGE_LOOP ( 'NONE', ( #327 ) ) ;
#153 = DIRECTION ( 'NONE',  ( 0.0000000000000000000, 0.0000000000000000000, 1.000000000000000000 ) ) ;
#154 = CIRCLE ( 'NONE', #225, 5.074000000000000700 ) ;
#155 = PERSON_AND_ORGANIZATION_ROLE ( 'design_supplier' ) ;
#156 = PERSON_AND_ORGANIZATION_ROLE ( 'creator' ) ;
#157 = DIRECTION ( 'NONE',  ( -0.0000000000000000000, -0.0000000000000000000, 1.000000000000000000 ) ) ;
#158 = DIRECTION ( 'NONE',  ( -0.0000000000000000000, -0.0000000000000000000, 1.000000000000000000 ) ) ;
#159 = TOROIDAL_SURFACE ( 'NONE', #20, 6.260000000000000700, 0.05999999999999997700 ) ;
#160 = APPROVAL_DATE_TIME ( #255, #149 ) ;
#161 = CARTESIAN_POINT ( 'NONE',  ( 0.0000000000000000000, 6.200000000000000200, -3.499999999999999100 ) ) ;
#162 = DIRECTION ( 'NONE',  ( 1.000000000000000000, 0.0000000000000000000, 0.0000000000000000000 ) ) ;
#163 = DIRECTION ( 'NONE',  ( -0.0000000000000000000, -0.0000000000000000000, 1.000000000000000000 ) ) ;
#164 = CARTESIAN_POINT ( 'NONE',  ( 0.0000000000000000000, 6.200000000000000200, 3.499999999999999100 ) ) ;
#165 = DIRECTION ( 'NONE',  ( 1.000000000000000000, 0.0000000000000000000, 0.0000000000000000000 ) ) ;
#166 = CARTESIAN_POINT ( 'NONE',  ( 0.0000000000000000000, 0.0000000000000000000, 0.0000000000000000000 ) ) ;
#167 = DIRECTION ( 'NONE',  ( 1.000000000000000000, 0.0000000000000000000, 0.0000000000000000000 ) ) ;
#168 = CC_DESIGN_SECURITY_CLASSIFICATION ( #93, ( #40 ) ) ;
#169 = CALENDAR_DATE ( 2017, 1, 8 ) ;
#170 = CC_DESIGN_PERSON_AND_ORGANIZATION_ASSIGNMENT ( #256, #156, ( #40 ) ) ;
#171 = CIRCLE ( 'NONE', #141, 6.239478791400459900 ) ;
#172 = DATE_AND_TIME ( #169, #240 ) ;
#173 = DIRECTION ( 'NONE',  ( 0.0000000000000000000, 0.0000000000000000000, 1.000000000000000000 ) ) ;
#174 = VERTEX_POINT ( 'NONE', #140 ) ;
#175 = VERTEX_POINT ( 'NONE', #28 ) ;
#176 = DIRECTION ( 'NONE',  ( -0.0000000000000000000, -0.0000000000000000000, 1.000000000000000000 ) ) ;
#177 = DIRECTION ( 'NONE',  ( -1.000000000000000000, 0.0000000000000000000, 0.0000000000000000000 ) ) ;
#178 = FACE_OUTER_BOUND ( 'NONE', #102, .T. ) ;
#179 = EDGE_LOOP ( 'NONE', ( #235 ) ) ;
#180 = EDGE_CURVE ( 'NONE', #252, #252, #94, .T. ) ;
#181 = AXIS2_PLACEMENT_3D ( 'NONE', #142, #326, #220 ) ;
#182 = EDGE_LOOP ( 'NONE', ( #17 ) ) ;
#183 = FACE_OUTER_BOUND ( 'NONE', #152, .T. ) ;
#184 = EDGE_LOOP ( 'NONE', ( #358 ) ) ;
#185 = AXIS2_PLACEMENT_3D ( 'NONE', #198, #153, #279 ) ;
#186 = DIRECTION ( 'NONE',  ( -0.0000000000000000000, -0.0000000000000000000, 1.000000000000000000 ) ) ;
#187 = DIRECTION ( 'NONE',  ( -1.000000000000000000, 0.0000000000000000000, 0.0000000000000000000 ) ) ;
#188 = ADVANCED_FACE ( 'NONE', ( #369, #344 ), #159, .F. ) ;
#189 = FACE_BOUND ( 'NONE', #179, .T. ) ;
#190 = DIRECTION ( 'NONE',  ( 1.000000000000000000, 0.0000000000000000000, 0.0000000000000000000 ) ) ;
#191 = CLOSED_SHELL ( 'NONE', ( #101, #271, #213, #108, #205, #241, #354, #131, #231, #128, #242, #188, #52, #216 ) ) ;
#192 = FACE_OUTER_BOUND ( 'NONE', #184, .T. ) ;
#193 = CIRCLE ( 'NONE', #26, 5.074000000000000700 ) ;
#194 = AXIS2_PLACEMENT_3D ( 'NONE', #15, #157, #71 ) ;
#195 = COORDINATED_UNIVERSAL_TIME_OFFSET ( 5, 0, .BEHIND. ) ;
#196 = ORIENTED_EDGE ( 'NONE', *, *, #199, .F. ) ;
#197 = DIRECTION ( 'NONE',  ( 1.000000000000000000, 0.0000000000000000000, 0.0000000000000000000 ) ) ;
#198 = CARTESIAN_POINT ( 'NONE',  ( 0.0000000000000000000, 0.0000000000000000000, 0.0000000000000000000 ) ) ;
#199 = EDGE_CURVE ( 'NONE', #328, #328, #171, .T. ) ;
#200 = DIRECTION ( 'NONE',  ( 1.000000000000000000, 0.0000000000000000000, 0.0000000000000000000 ) ) ;
#201 = EDGE_LOOP ( 'NONE', ( #59 ) ) ;
#202 = ORIENTED_EDGE ( 'NONE', *, *, #371, .T. ) ;
#203 = APPROVAL_STATUS ( 'not_yet_approved' ) ;
#204 = CIRCLE ( 'NONE', #11, 6.700000000000000200 ) ;
#205 = ADVANCED_FACE ( 'NONE', ( #264, #98 ), #272, .T. ) ;
#206 = CONICAL_SURFACE ( 'NONE', #287, 6.699999999999999300, 1.221730476396033900 ) ;
#207 = EDGE_LOOP ( 'NONE', ( #60 ) ) ;
#208 = EDGE_CURVE ( 'NONE', #31, #31, #193, .T. ) ;
#209 = DIRECTION ( 'NONE',  ( 1.000000000000000000, 0.0000000000000000000, 0.0000000000000000000 ) ) ;
#210 = CARTESIAN_POINT ( 'NONE',  ( 6.200000000000000200, 0.0000000000000000000, 3.500000000000000000 ) ) ;
#211 = FACE_OUTER_BOUND ( 'NONE', #310, .T. ) ;
#212 = DIRECTION ( 'NONE',  ( 0.0000000000000000000, 0.0000000000000000000, -1.000000000000000000 ) ) ;
#213 = ADVANCED_FACE ( 'NONE', ( #54, #357 ), #111, .F. ) ;
#214 =( NAMED_UNIT ( * ) PLANE_ANGLE_UNIT ( ) SI_UNIT ( $, .RADIAN. ) );
#215 = APPLICATION_PROTOCOL_DEFINITION ( 'international standard', 'config_control_design', 1994, #340 ) ;
#216 = ADVANCED_FACE ( 'NONE', ( #183, #129 ), #42, .T. ) ;
#217 = ORIENTED_EDGE ( 'NONE', *, *, #208, .F. ) ;
#218 = COORDINATED_UNIVERSAL_TIME_OFFSET ( 5, 0, .BEHIND. ) ;
#219 = DIRECTION ( 'NONE',  ( -1.000000000000000000, 0.0000000000000000000, 0.0000000000000000000 ) ) ;
#220 = DIRECTION ( 'NONE',  ( 1.000000000000000000, 0.0000000000000000000, 0.0000000000000000000 ) ) ;
#221 = CARTESIAN_POINT ( 'NONE',  ( 6.200000000000000200, 0.0000000000000000000, -1.803997569425681600 ) ) ;
#222 = CIRCLE ( 'NONE', #248, 6.699999999999999300 ) ;
#223 = DATE_AND_TIME ( #89, #95 ) ;
#224 = PERSON_AND_ORGANIZATION_ROLE ( 'design_owner' ) ;
#225 = AXIS2_PLACEMENT_3D ( 'NONE', #33, #325, #288 ) ;
#226 = CARTESIAN_POINT ( 'NONE',  ( 5.074000000000000700, 0.0000000000000000000, -3.499999999999999100 ) ) ;
#227 = EDGE_LOOP ( 'NONE', ( #30 ) ) ;
#228 = EDGE_LOOP ( 'NONE', ( #80 ) ) ;
#229 = EDGE_LOOP ( 'NONE', ( #217 ) ) ;
#230 = EDGE_CURVE ( 'NONE', #336, #336, #204, .T. ) ;
#231 = ADVANCED_FACE ( 'NONE', ( #121, #367 ), #251, .F. ) ;
#232 = CARTESIAN_POINT ( 'NONE',  ( 0.0000000000000000000, 0.0000000000000000000, 1.199999999999999700 ) ) ;
#233 = EDGE_CURVE ( 'NONE', #32, #32, #342, .T. ) ;
#234 = VERTEX_POINT ( 'NONE', #55 ) ;
#235 = ORIENTED_EDGE ( 'NONE', *, *, #123, .T. ) ;
#236 = ORIENTED_EDGE ( 'NONE', *, *, #123, .F. ) ;
#237 = DIRECTION ( 'NONE',  ( -0.0000000000000000000, -0.0000000000000000000, 1.000000000000000000 ) ) ;
#238 = CALENDAR_DATE ( 2017, 1, 8 ) ;
#239 = EDGE_LOOP ( 'NONE', ( #249 ) ) ;
#240 = LOCAL_TIME ( 9, 43, 11.00000000000000000, #329 ) ;
#241 = ADVANCED_FACE ( 'NONE', ( #22, #285 ), #77, .F. ) ;
#242 = ADVANCED_FACE ( 'NONE', ( #211, #63 ), #1, .T. ) ;
#243 = EDGE_CURVE ( 'NONE', #104, #104, #51, .T. ) ;
#244 = ORIENTED_EDGE ( 'NONE', *, *, #233, .F. ) ;
#245 = FACE_OUTER_BOUND ( 'NONE', #86, .T. ) ;
#246 = EDGE_CURVE ( 'NONE', #174, #174, #294, .T. ) ;
#247 = SECURITY_CLASSIFICATION_LEVEL ( 'unclassified' ) ;
#248 = AXIS2_PLACEMENT_3D ( 'NONE', #283, #237, #73 ) ;
#249 = ORIENTED_EDGE ( 'NONE', *, *, #120, .T. ) ;
#250 = SHAPE_DEFINITION_REPRESENTATION ( #261, #267 ) ;
#251 = PLANE ( 'NONE',  #300 ) ;
#252 = VERTEX_POINT ( 'NONE', #221 ) ;
#253 = APPLICATION_CONTEXT ( 'configuration controlled 3d designs of mechanical parts and assemblies' ) ;
#254 = AXIS2_PLACEMENT_3D ( 'NONE', #88, #83, #209 ) ;
#255 = DATE_AND_TIME ( #238, #13 ) ;
#256 = PERSON_AND_ORGANIZATION ( #78, #282 ) ;
#257 = CIRCLE ( 'NONE', #306, 6.700000000000000200 ) ;
#258 = EDGE_CURVE ( 'NONE', #175, #175, #136, .T. ) ;
#259 = CARTESIAN_POINT ( 'NONE',  ( 0.0000000000000000000, 0.0000000000000000000, 0.0000000000000000000 ) ) ;
#260 = EDGE_LOOP ( 'NONE', ( #281 ) ) ;
#261 = PRODUCT_DEFINITION_SHAPE ( 'NONE', 'NONE',  #90 ) ;
#262 = CARTESIAN_POINT ( 'NONE',  ( 0.0000000000000000000, 6.700000000000000200, -1.199999999999999700 ) ) ;
#263 = CARTESIAN_POINT ( 'NONE',  ( 0.0000000000000000000, 0.0000000000000000000, -3.499999999999999100 ) ) ;
#264 = FACE_OUTER_BOUND ( 'NONE', #119, .T. ) ;
#265 = PRODUCT_RELATED_PRODUCT_CATEGORY ( 'detail', '', ( #100 ) ) ;
#266 = CARTESIAN_POINT ( 'NONE',  ( 6.700000000000000200, 0.0000000000000000000, 1.200000000000000000 ) ) ;
#267 = ADVANCED_BREP_SHAPE_REPRESENTATION ( '589161120', ( #49, #185 ), #330 ) ;
#268 = ORIENTED_EDGE ( 'NONE', *, *, #258, .F. ) ;
#269 = VERTEX_POINT ( 'NONE', #275 ) ;
#270 = AXIS2_PLACEMENT_3D ( 'NONE', #74, #158, #165 ) ;
#271 = ADVANCED_FACE ( 'NONE', ( #82, #126 ), #303, .T. ) ;
#272 = CYLINDRICAL_SURFACE ( 'NONE', #289, 6.200000000000000200 ) ;
#273 = AXIS2_PLACEMENT_3D ( 'NONE', #259, #34, #99 ) ;
#274 = DATE_AND_TIME ( #130, #368 ) ;
#275 = CARTESIAN_POINT ( 'NONE',  ( 6.200000000000000200, 0.0000000000000000000, -3.500000000000000000 ) ) ;
#276 = DIRECTION ( 'NONE',  ( 1.000000000000000000, 0.0000000000000000000, 0.0000000000000000000 ) ) ;
#277 = APPROVAL_ROLE ( '' ) ;
#278 = APPROVAL_STATUS ( 'not_yet_approved' ) ;
#279 = DIRECTION ( 'NONE',  ( 1.000000000000000000, 0.0000000000000000000, 0.0000000000000000000 ) ) ;
#280 = PERSON_AND_ORGANIZATION_ROLE ( 'creator' ) ;
#281 = ORIENTED_EDGE ( 'NONE', *, *, #208, .T. ) ;
#282 = ORGANIZATION ( 'UNSPECIFIED', 'UNSPECIFIED', '' ) ;
#283 = CARTESIAN_POINT ( 'NONE',  ( 0.0000000000000000000, 0.0000000000000000000, 1.579999999999999800 ) ) ;
#284 = DIRECTION ( 'NONE',  ( -0.0000000000000000000, -0.0000000000000000000, 1.000000000000000000 ) ) ;
#285 = FACE_OUTER_BOUND ( 'NONE', #201, .T. ) ;
#286 = CALENDAR_DATE ( 2017, 1, 8 ) ;
#287 = AXIS2_PLACEMENT_3D ( 'NONE', #348, #110, #187 ) ;
#288 = DIRECTION ( 'NONE',  ( 1.000000000000000000, 0.0000000000000000000, 0.0000000000000000000 ) ) ;
#289 = AXIS2_PLACEMENT_3D ( 'NONE', #166, #106, #290 ) ;
#290 = DIRECTION ( 'NONE',  ( 1.000000000000000000, 0.0000000000000000000, 0.0000000000000000000 ) ) ;
#291 = ORIENTED_EDGE ( 'NONE', *, *, #246, .F. ) ;
#292 = DIRECTION ( 'NONE',  ( -0.0000000000000000000, -0.0000000000000000000, 1.000000000000000000 ) ) ;
#293 = AXIS2_PLACEMENT_3D ( 'NONE', #112, #359, #167 ) ;
#294 = CIRCLE ( 'NONE', #66, 6.200000000000000200 ) ;
#295 = COORDINATED_UNIVERSAL_TIME_OFFSET ( 5, 0, .BEHIND. ) ;
#296 = DIRECTION ( 'NONE',  ( 0.0000000000000000000, 0.0000000000000000000, -1.000000000000000000 ) ) ;
#297 = CARTESIAN_POINT ( 'NONE',  ( 6.200000000000000200, 0.0000000000000000000, 1.199999999999999700 ) ) ;
#298 = ORIENTED_EDGE ( 'NONE', *, *, #199, .T. ) ;
#299 = APPROVAL_PERSON_ORGANIZATION ( #139, #87, #343 ) ;
#300 = AXIS2_PLACEMENT_3D ( 'NONE', #262, #338, #162 ) ;
#301 = APPROVAL_ROLE ( '' ) ;
#302 = EDGE_CURVE ( 'NONE', #234, #234, #222, .T. ) ;
#303 = CYLINDRICAL_SURFACE ( 'NONE', #194, 6.200000000000000200 ) ;
#304 = FACE_OUTER_BOUND ( 'NONE', #341, .T. ) ;
#305 = DATE_TIME_ROLE ( 'classification_date' ) ;
#306 = AXIS2_PLACEMENT_3D ( 'NONE', #109, #118, #349 ) ;
#307 = PLANE ( 'NONE',  #353 ) ;
#308 = CARTESIAN_POINT ( 'NONE',  ( 0.0000000000000000000, 0.0000000000000000000, -3.500000000000000000 ) ) ;
#309 = UNCERTAINTY_MEASURE_WITH_UNIT (LENGTH_MEASURE( 1.000000000000000100E-005 ), #5, 'distance_accuracy_value', 'NONE');
#310 = EDGE_LOOP ( 'NONE', ( #202 ) ) ;
#311 = EDGE_LOOP ( 'NONE', ( #236 ) ) ;
#312 = DIRECTION ( 'NONE',  ( 0.0000000000000000000, -0.0000000000000000000, 1.000000000000000000 ) ) ;
#313 = AXIS2_PLACEMENT_3D ( 'NONE', #16, #9, #219 ) ;
#314 = ORIENTED_EDGE ( 'NONE', *, *, #120, .F. ) ;
#315 = ORIENTED_EDGE ( 'NONE', *, *, #243, .F. ) ;
#316 = AXIS2_PLACEMENT_3D ( 'NONE', #337, #312, #127 ) ;
#317 = MECHANICAL_CONTEXT ( 'NONE', #340, 'mechanical' ) ;
#318 = AXIS2_PLACEMENT_3D ( 'NONE', #144, #92, #190 ) ;
#319 =( NAMED_UNIT ( * ) SI_UNIT ( $, .STERADIAN. ) SOLID_ANGLE_UNIT ( ) );
#320 = AXIS2_PLACEMENT_3D ( 'NONE', #47, #292, #146 ) ;
#321 = AXIS2_PLACEMENT_3D ( 'NONE', #308, #186, #91 ) ;
#322 = EDGE_LOOP ( 'NONE', ( #48 ) ) ;
#323 = APPROVAL_PERSON_ORGANIZATION ( #2, #331, #301 ) ;
#324 = FACE_OUTER_BOUND ( 'NONE', #228, .T. ) ;
#325 = DIRECTION ( 'NONE',  ( -0.0000000000000000000, -0.0000000000000000000, 1.000000000000000000 ) ) ;
#326 = DIRECTION ( 'NONE',  ( -0.0000000000000000000, -0.0000000000000000000, 1.000000000000000000 ) ) ;
#327 = ORIENTED_EDGE ( 'NONE', *, *, #45, .T. ) ;
#328 = VERTEX_POINT ( 'NONE', #363 ) ;
#329 = COORDINATED_UNIVERSAL_TIME_OFFSET ( 5, 0, .BEHIND. ) ;
#330 =( GEOMETRIC_REPRESENTATION_CONTEXT ( 3 ) GLOBAL_UNCERTAINTY_ASSIGNED_CONTEXT ( ( #309 ) ) GLOBAL_UNIT_ASSIGNED_CONTEXT ( ( #5, #214, #319 ) ) REPRESENTATION_CONTEXT ( 'NONE', 'WORKASPACE' ) );
#331 = APPROVAL ( #339, 'UNSPECIFIED' ) ;
#332 = EDGE_LOOP ( 'NONE', ( #244 ) ) ;
#333 = EDGE_LOOP ( 'NONE', ( #291 ) ) ;
#334 = DIRECTION ( 'NONE',  ( 1.000000000000000000, 0.0000000000000000000, 0.0000000000000000000 ) ) ;
#335 = VERTEX_POINT ( 'NONE', #297 ) ;
#336 = VERTEX_POINT ( 'NONE', #266 ) ;
#337 = CARTESIAN_POINT ( 'NONE',  ( 0.0000000000000000000, 6.700000000000000200, 1.199999999999999700 ) ) ;
#338 = DIRECTION ( 'NONE',  ( 0.0000000000000000000, 0.0000000000000000000, -1.000000000000000000 ) ) ;
#339 = APPROVAL_STATUS ( 'not_yet_approved' ) ;
#340 = APPLICATION_CONTEXT ( 'configuration controlled 3d designs of mechanical parts and assemblies' ) ;
#341 = EDGE_LOOP ( 'NONE', ( #147 ) ) ;
#342 = CIRCLE ( 'NONE', #270, 6.200000000000000200 ) ;
#343 = APPROVAL_ROLE ( '' ) ;
#344 = FACE_OUTER_BOUND ( 'NONE', #44, .T. ) ;
#345 = PERSON_AND_ORGANIZATION ( #78, #282 ) ;
#346 = AXIS2_PLACEMENT_3D ( 'NONE', #21, #41, #197 ) ;
#347 = DIRECTION ( 'NONE',  ( -0.0000000000000000000, -0.0000000000000000000, 1.000000000000000000 ) ) ;
#348 = CARTESIAN_POINT ( 'NONE',  ( 0.0000000000000000000, 0.0000000000000000000, 1.579999999999999800 ) ) ;
#349 = DIRECTION ( 'NONE',  ( 1.000000000000000000, 0.0000000000000000000, 0.0000000000000000000 ) ) ;
#350 = PLANE ( 'NONE',  #14 ) ;
#351 = ORIENTED_EDGE ( 'NONE', *, *, #150, .F. ) ;
#352 = PLANE ( 'NONE',  #316 ) ;
#353 = AXIS2_PLACEMENT_3D ( 'NONE', #164, #296, #50 ) ;
#354 = ADVANCED_FACE ( 'NONE', ( #12, #192 ), #206, .T. ) ;
#355 = DIRECTION ( 'NONE',  ( -0.0000000000000000000, -0.0000000000000000000, 1.000000000000000000 ) ) ;
#356 = CARTESIAN_POINT ( 'NONE',  ( 0.0000000000000000000, 0.0000000000000000000, -1.803997569425681600 ) ) ;
#357 = FACE_OUTER_BOUND ( 'NONE', #229, .T. ) ;
#358 = ORIENTED_EDGE ( 'NONE', *, *, #302, .T. ) ;
#359 = DIRECTION ( 'NONE',  ( -0.0000000000000000000, -0.0000000000000000000, 1.000000000000000000 ) ) ;
#360 = AXIS2_PLACEMENT_3D ( 'NONE', #10, #212, #35 ) ;
#361 = VERTEX_POINT ( 'NONE', #115 ) ;
#362 = CC_DESIGN_PERSON_AND_ORGANIZATION_ASSIGNMENT ( #114, #155, ( #40 ) ) ;
#363 = CARTESIAN_POINT ( 'NONE',  ( 6.239478791400459900, 0.0000000000000000000, -1.747616012178526900 ) ) ;
#364 = DESIGN_CONTEXT ( 'detailed design', #253, 'design' ) ;
#365 = AXIS2_PLACEMENT_3D ( 'NONE', #232, #163, #148 ) ;
#366 = CC_DESIGN_DATE_AND_TIME_ASSIGNMENT ( #137, #305, ( #93 ) ) ;
#367 = FACE_BOUND ( 'NONE', #333, .T. ) ;
#368 = LOCAL_TIME ( 9, 43, 11.00000000000000000, #295 ) ;
#369 = FACE_OUTER_BOUND ( 'NONE', #138, .T. ) ;
#370 = ORIENTED_EDGE ( 'NONE', *, *, #230, .T. ) ;
#371 = EDGE_CURVE ( 'NONE', #269, #269, #151, .T. ) ;
#372 = DIRECTION ( 'NONE',  ( 1.000000000000000000, 0.0000000000000000000, 0.0000000000000000000 ) ) ;
ENDSEC;
END-ISO-10303-21;
