ISO-10303-21;
HEADER;
FILE_DESCRIPTION( ( '' ), '1' );
FILE_NAME( 'R:/Engineering/Parts CD files/STP/Industrial & Dual Contained/Chemproline/Pipe/SDR11/AGRU_25705006311_PE 100 schwarz_Rohr  5m_63X5,8  SDR11  ISO S-5_105.stp', '2012-06-20T12:42:46', ( '' ), ( '' ), ' ', ' ', ' ' );
FILE_SCHEMA( ( 'CONFIG_CONTROL_DESIGN' ) );
ENDSEC;
DATA;
#1 = DESIGN_CONTEXT( '', #27, 'design' );
#2 = APPLICATION_PROTOCOL_DEFINITION( 'INTERNATIONAL STANDARD', 'config_control_design', 1994, #27 );
#3 = PRODUCT_CATEGORY_RELATIONSHIP( 'NONE', 'NONE', #28, #29 );
#4 = DATE_AND_TIME( #30, #31 );
#5 = DATE_TIME_ROLE( 'creation_date' );
#6 = DATE_TIME_ROLE( 'classification_date' );
#7 = PERSON_AND_ORGANIZATION_ROLE( 'creator' );
#8 = PERSON_AND_ORGANIZATION_ROLE( 'design_supplier' );
#9 = PERSON_AND_ORGANIZATION_ROLE( 'classification_officer' );
#10 = PERSON_AND_ORGANIZATION_ROLE( 'design_owner' );
#11 = APPROVAL_PERSON_ORGANIZATION( #32, #33, #34 );
#12 = APPROVAL_DATE_TIME( #4, #33 );
#13 = CC_DESIGN_APPROVAL( #33, ( #35, #36, #37 ) );
#14 = CC_DESIGN_DATE_AND_TIME_ASSIGNMENT( #4, #5, ( #37 ) );
#15 = CC_DESIGN_DATE_AND_TIME_ASSIGNMENT( #4, #6, ( #35 ) );
#16 = CC_DESIGN_PERSON_AND_ORGANIZATION_ASSIGNMENT( #32, #10, ( #38 ) );
#17 = CC_DESIGN_PERSON_AND_ORGANIZATION_ASSIGNMENT( #32, #7, ( #37 ) );
#18 = CC_DESIGN_PERSON_AND_ORGANIZATION_ASSIGNMENT( #32, #7, ( #36 ) );
#19 = CC_DESIGN_PERSON_AND_ORGANIZATION_ASSIGNMENT( #32, #8, ( #36 ) );
#20 = CC_DESIGN_SECURITY_CLASSIFICATION( #35, ( #36 ) );
#21 = CC_DESIGN_PERSON_AND_ORGANIZATION_ASSIGNMENT( #32, #9, ( #35 ) );
#22 = SHAPE_DEFINITION_REPRESENTATION( #39, #40 );
#23 =  ( GEOMETRIC_REPRESENTATION_CONTEXT( 3 )GLOBAL_UNCERTAINTY_ASSIGNED_CONTEXT( ( #43 ) )GLOBAL_UNIT_ASSIGNED_CONTEXT( ( #45, #46, #47 ) )REPRESENTATION_CONTEXT( 'NONE', 'WORKSPACE' ) );
#27 = APPLICATION_CONTEXT( 'CONFIGURATION CONTROLLED 3D DESIGNS OF MECHANICAL PARTS AND ASSEMBLIES' );
#28 = PRODUCT_CATEGORY( 'part', 'NONE' );
#29 = PRODUCT_RELATED_PRODUCT_CATEGORY( 'detail', ' ', ( #38 ) );
#30 = CALENDAR_DATE( 2012, 20, 5 );
#31 = LOCAL_TIME( 8, 42, 46.0000000000000, #49 );
#32 = PERSON_AND_ORGANIZATION( #50, #51 );
#33 = APPROVAL( #52, 'SOLID MODEL' );
#34 = APPROVAL_ROLE( 'APPROVED' );
#35 = SECURITY_CLASSIFICATION( '', '', #53 );
#36 = PRODUCT_DEFINITION_FORMATION_WITH_SPECIFIED_SOURCE( ' ', 'NONE', #38, .NOT_KNOWN. );
#37 = PRODUCT_DEFINITION( 'NONE', 'NONE', #36, #1 );
#38 = PRODUCT( '1', '1', 'PART-1-DESC', ( #54 ) );
#39 = PRODUCT_DEFINITION_SHAPE( 'NONE', 'NONE', #37 );
#40 = ADVANCED_BREP_SHAPE_REPRESENTATION( '1', ( #55, #56 ), #23 );
#43 = UNCERTAINTY_MEASURE_WITH_UNIT( LENGTH_MEASURE( 1.00000000000000E-006 ), #45, '', '' );
#45 =  ( CONVERSION_BASED_UNIT( 'MILLIMETRE', #59 )LENGTH_UNIT(  )NAMED_UNIT( #62 ) );
#46 =  ( NAMED_UNIT( #64 )PLANE_ANGLE_UNIT(  )SI_UNIT( $, .RADIAN. ) );
#47 =  ( NAMED_UNIT( #64 )SOLID_ANGLE_UNIT(  )SI_UNIT( $, .STERADIAN. ) );
#49 = COORDINATED_UNIVERSAL_TIME_OFFSET( 5, 0, .BEHIND. );
#50 = PERSON( '', 'UNSPECIFIED', $, $, $, $ );
#51 = ORGANIZATION( 'UNSPECIFIED', 'UNSPECIFIED', 'UNSPECIFIED' );
#52 = APPROVAL_STATUS( 'approved' );
#53 = SECURITY_CLASSIFICATION_LEVEL( 'unclassified' );
#54 = MECHANICAL_CONTEXT( '', #27, 'mechanical' );
#55 = MANIFOLD_SOLID_BREP( '1', #70 );
#56 = AXIS2_PLACEMENT_3D( '', #71, #72, #73 );
#59 = LENGTH_MEASURE_WITH_UNIT( LENGTH_MEASURE( 1.00000000000000 ), #74 );
#62 = DIMENSIONAL_EXPONENTS( 1.00000000000000, 0.000000000000000, 0.000000000000000, 0.000000000000000, 0.000000000000000, 0.000000000000000, 0.000000000000000 );
#64 = DIMENSIONAL_EXPONENTS( 0.000000000000000, 0.000000000000000, 0.000000000000000, 0.000000000000000, 0.000000000000000, 0.000000000000000, 0.000000000000000 );
#70 = CLOSED_SHELL( '', ( #75, #76, #77, #78, #79, #80 ) );
#71 = CARTESIAN_POINT( '', ( 0.000000000000000, 0.000000000000000, 0.000000000000000 ) );
#72 = DIRECTION( '', ( 0.000000000000000, 0.000000000000000, 1.00000000000000 ) );
#73 = DIRECTION( '', ( 1.00000000000000, 0.000000000000000, 0.000000000000000 ) );
#74 =  ( NAMED_UNIT( #62 )LENGTH_UNIT(  )SI_UNIT( .MILLI., .METRE. ) );
#75 = ADVANCED_FACE( '', ( #82 ), #83, .T. );
#76 = ADVANCED_FACE( '', ( #84 ), #85, .F. );
#77 = ADVANCED_FACE( '', ( #86 ), #87, .F. );
#78 = ADVANCED_FACE( '', ( #88 ), #89, .T. );
#79 = ADVANCED_FACE( '', ( #90, #91 ), #92, .T. );
#80 = ADVANCED_FACE( '', ( #93, #94 ), #95, .F. );
#82 = FACE_OUTER_BOUND( '', #96, .T. );
#83 = CYLINDRICAL_SURFACE( '', #97, 31.5000000000000 );
#84 = FACE_OUTER_BOUND( '', #98, .T. );
#85 = CYLINDRICAL_SURFACE( '', #99, 25.7000000000000 );
#86 = FACE_OUTER_BOUND( '', #100, .T. );
#87 = CYLINDRICAL_SURFACE( '', #101, 25.7000000000000 );
#88 = FACE_OUTER_BOUND( '', #102, .T. );
#89 = CYLINDRICAL_SURFACE( '', #103, 31.5000000000000 );
#90 = FACE_OUTER_BOUND( '', #104, .T. );
#91 = FACE_BOUND( '', #105, .T. );
#92 = PLANE( '', #106 );
#93 = FACE_OUTER_BOUND( '', #107, .T. );
#94 = FACE_BOUND( '', #108, .T. );
#95 = PLANE( '', #109 );
#96 = EDGE_LOOP( '', ( #110, #111, #112, #113 ) );
#97 = AXIS2_PLACEMENT_3D( '', #114, #115, #116 );
#98 = EDGE_LOOP( '', ( #117, #118, #119, #120 ) );
#99 = AXIS2_PLACEMENT_3D( '', #121, #122, #123 );
#100 = EDGE_LOOP( '', ( #124, #125, #126, #127 ) );
#101 = AXIS2_PLACEMENT_3D( '', #128, #129, #130 );
#102 = EDGE_LOOP( '', ( #131, #132, #133, #134 ) );
#103 = AXIS2_PLACEMENT_3D( '', #135, #136, #137 );
#104 = EDGE_LOOP( '', ( #138, #139 ) );
#105 = EDGE_LOOP( '', ( #140, #141 ) );
#106 = AXIS2_PLACEMENT_3D( '', #142, #143, #144 );
#107 = EDGE_LOOP( '', ( #145, #146 ) );
#108 = EDGE_LOOP( '', ( #147, #148 ) );
#109 = AXIS2_PLACEMENT_3D( '', #149, #150, #151 );
#110 = ORIENTED_EDGE( '', *, *, #152, .F. );
#111 = ORIENTED_EDGE( '', *, *, #153, .T. );
#112 = ORIENTED_EDGE( '', *, *, #154, .F. );
#113 = ORIENTED_EDGE( '', *, *, #155, .T. );
#114 = CARTESIAN_POINT( '', ( 0.000000000000000, 0.000000000000000, 0.000000000000000 ) );
#115 = DIRECTION( '', ( -1.00000000000000, 0.000000000000000, 0.000000000000000 ) );
#116 = DIRECTION( '', ( 0.000000000000000, 0.000000000000000, -1.00000000000000 ) );
#117 = ORIENTED_EDGE( '', *, *, #156, .F. );
#118 = ORIENTED_EDGE( '', *, *, #157, .F. );
#119 = ORIENTED_EDGE( '', *, *, #158, .F. );
#120 = ORIENTED_EDGE( '', *, *, #159, .T. );
#121 = CARTESIAN_POINT( '', ( 0.000000000000000, 0.000000000000000, 0.000000000000000 ) );
#122 = DIRECTION( '', ( -1.00000000000000, 0.000000000000000, 0.000000000000000 ) );
#123 = DIRECTION( '', ( 0.000000000000000, 0.000000000000000, -1.00000000000000 ) );
#124 = ORIENTED_EDGE( '', *, *, #156, .T. );
#125 = ORIENTED_EDGE( '', *, *, #160, .T. );
#126 = ORIENTED_EDGE( '', *, *, #158, .T. );
#127 = ORIENTED_EDGE( '', *, *, #161, .F. );
#128 = CARTESIAN_POINT( '', ( 0.000000000000000, 0.000000000000000, 0.000000000000000 ) );
#129 = DIRECTION( '', ( -1.00000000000000, 0.000000000000000, 0.000000000000000 ) );
#130 = DIRECTION( '', ( 0.000000000000000, 0.000000000000000, -1.00000000000000 ) );
#131 = ORIENTED_EDGE( '', *, *, #152, .T. );
#132 = ORIENTED_EDGE( '', *, *, #162, .T. );
#133 = ORIENTED_EDGE( '', *, *, #154, .T. );
#134 = ORIENTED_EDGE( '', *, *, #163, .T. );
#135 = CARTESIAN_POINT( '', ( 0.000000000000000, 0.000000000000000, 0.000000000000000 ) );
#136 = DIRECTION( '', ( -1.00000000000000, 0.000000000000000, 0.000000000000000 ) );
#137 = DIRECTION( '', ( 0.000000000000000, 0.000000000000000, -1.00000000000000 ) );
#138 = ORIENTED_EDGE( '', *, *, #162, .F. );
#139 = ORIENTED_EDGE( '', *, *, #155, .F. );
#140 = ORIENTED_EDGE( '', *, *, #160, .F. );
#141 = ORIENTED_EDGE( '', *, *, #159, .F. );
#142 = CARTESIAN_POINT( '', ( 5000.00000000000, 0.000000000000000, 0.000000000000000 ) );
#143 = DIRECTION( '', ( 1.00000000000000, 0.000000000000000, 0.000000000000000 ) );
#144 = DIRECTION( '', ( 0.000000000000000, 0.000000000000000, -1.00000000000000 ) );
#145 = ORIENTED_EDGE( '', *, *, #153, .F. );
#146 = ORIENTED_EDGE( '', *, *, #163, .F. );
#147 = ORIENTED_EDGE( '', *, *, #161, .T. );
#148 = ORIENTED_EDGE( '', *, *, #157, .T. );
#149 = CARTESIAN_POINT( '', ( 0.000000000000000, 0.000000000000000, 0.000000000000000 ) );
#150 = DIRECTION( '', ( 1.00000000000000, 0.000000000000000, 0.000000000000000 ) );
#151 = DIRECTION( '', ( 0.000000000000000, 0.000000000000000, -1.00000000000000 ) );
#152 = EDGE_CURVE( '', #164, #165, #166, .T. );
#153 = EDGE_CURVE( '', #164, #167, #168, .T. );
#154 = EDGE_CURVE( '', #169, #167, #170, .T. );
#155 = EDGE_CURVE( '', #169, #165, #171, .T. );
#156 = EDGE_CURVE( '', #172, #173, #174, .T. );
#157 = EDGE_CURVE( '', #175, #172, #176, .T. );
#158 = EDGE_CURVE( '', #177, #175, #178, .T. );
#159 = EDGE_CURVE( '', #177, #173, #179, .T. );
#160 = EDGE_CURVE( '', #173, #177, #180, .T. );
#161 = EDGE_CURVE( '', #172, #175, #181, .T. );
#162 = EDGE_CURVE( '', #165, #169, #182, .T. );
#163 = EDGE_CURVE( '', #167, #164, #183, .T. );
#164 = VERTEX_POINT( '', #184 );
#165 = VERTEX_POINT( '', #185 );
#166 = LINE( '', #186, #187 );
#167 = VERTEX_POINT( '', #188 );
#168 = CIRCLE( '', #189, 31.5000000000000 );
#169 = VERTEX_POINT( '', #190 );
#170 = LINE( '', #191, #192 );
#171 = CIRCLE( '', #193, 31.5000000000000 );
#172 = VERTEX_POINT( '', #194 );
#173 = VERTEX_POINT( '', #195 );
#174 = LINE( '', #196, #197 );
#175 = VERTEX_POINT( '', #198 );
#176 = CIRCLE( '', #199, 25.7000000000000 );
#177 = VERTEX_POINT( '', #200 );
#178 = LINE( '', #201, #202 );
#179 = CIRCLE( '', #203, 25.7000000000000 );
#180 = CIRCLE( '', #204, 25.7000000000000 );
#181 = CIRCLE( '', #205, 25.7000000000000 );
#182 = CIRCLE( '', #206, 31.5000000000000 );
#183 = CIRCLE( '', #207, 31.5000000000000 );
#184 = CARTESIAN_POINT( '', ( 0.000000000000000, 0.000000000000000, -31.5000000000000 ) );
#185 = CARTESIAN_POINT( '', ( 5000.00000000000, 0.000000000000000, -31.5000000000000 ) );
#186 = CARTESIAN_POINT( '', ( 0.000000000000000, -3.85751001454049E-015, -31.5000000000000 ) );
#187 = VECTOR( '', #208, 1.00000000000000 );
#188 = CARTESIAN_POINT( '', ( 0.000000000000000, 3.85751001454049E-015, 31.5000000000000 ) );
#189 = AXIS2_PLACEMENT_3D( '', #209, #210, #211 );
#190 = CARTESIAN_POINT( '', ( 5000.00000000000, 3.85751001454049E-015, 31.5000000000000 ) );
#191 = CARTESIAN_POINT( '', ( 0.000000000000000, 3.85751001454049E-015, 31.5000000000000 ) );
#192 = VECTOR( '', #212, 1.00000000000000 );
#193 = AXIS2_PLACEMENT_3D( '', #213, #214, #215 );
#194 = CARTESIAN_POINT( '', ( 0.000000000000000, 0.000000000000000, -25.7000000000000 ) );
#195 = CARTESIAN_POINT( '', ( 5000.00000000000, 0.000000000000000, -25.7000000000000 ) );
#196 = CARTESIAN_POINT( '', ( 0.000000000000000, -3.14723832932351E-015, -25.7000000000000 ) );
#197 = VECTOR( '', #216, 1.00000000000000 );
#198 = CARTESIAN_POINT( '', ( 0.000000000000000, 3.14723832932351E-015, 25.7000000000000 ) );
#199 = AXIS2_PLACEMENT_3D( '', #217, #218, #219 );
#200 = CARTESIAN_POINT( '', ( 5000.00000000000, 3.14723832932351E-015, 25.7000000000000 ) );
#201 = CARTESIAN_POINT( '', ( 0.000000000000000, 3.14723832932351E-015, 25.7000000000000 ) );
#202 = VECTOR( '', #220, 1.00000000000000 );
#203 = AXIS2_PLACEMENT_3D( '', #221, #222, #223 );
#204 = AXIS2_PLACEMENT_3D( '', #224, #225, #226 );
#205 = AXIS2_PLACEMENT_3D( '', #227, #228, #229 );
#206 = AXIS2_PLACEMENT_3D( '', #230, #231, #232 );
#207 = AXIS2_PLACEMENT_3D( '', #233, #234, #235 );
#208 = DIRECTION( '', ( 1.00000000000000, 0.000000000000000, 0.000000000000000 ) );
#209 = CARTESIAN_POINT( '', ( 0.000000000000000, 0.000000000000000, 0.000000000000000 ) );
#210 = DIRECTION( '', ( 1.00000000000000, 0.000000000000000, 0.000000000000000 ) );
#211 = DIRECTION( '', ( 0.000000000000000, 0.000000000000000, -1.00000000000000 ) );
#212 = DIRECTION( '', ( -1.00000000000000, 0.000000000000000, 0.000000000000000 ) );
#213 = CARTESIAN_POINT( '', ( 5000.00000000000, 0.000000000000000, 0.000000000000000 ) );
#214 = DIRECTION( '', ( -1.00000000000000, 0.000000000000000, 0.000000000000000 ) );
#215 = DIRECTION( '', ( 0.000000000000000, 0.000000000000000, -1.00000000000000 ) );
#216 = DIRECTION( '', ( 1.00000000000000, 0.000000000000000, 0.000000000000000 ) );
#217 = CARTESIAN_POINT( '', ( 0.000000000000000, 0.000000000000000, 0.000000000000000 ) );
#218 = DIRECTION( '', ( 1.00000000000000, 0.000000000000000, 0.000000000000000 ) );
#219 = DIRECTION( '', ( 0.000000000000000, 0.000000000000000, -1.00000000000000 ) );
#220 = DIRECTION( '', ( -1.00000000000000, 0.000000000000000, 0.000000000000000 ) );
#221 = CARTESIAN_POINT( '', ( 5000.00000000000, 0.000000000000000, 0.000000000000000 ) );
#222 = DIRECTION( '', ( 1.00000000000000, 0.000000000000000, 0.000000000000000 ) );
#223 = DIRECTION( '', ( 0.000000000000000, 0.000000000000000, -1.00000000000000 ) );
#224 = CARTESIAN_POINT( '', ( 5000.00000000000, 0.000000000000000, 0.000000000000000 ) );
#225 = DIRECTION( '', ( 1.00000000000000, 0.000000000000000, 0.000000000000000 ) );
#226 = DIRECTION( '', ( 0.000000000000000, 0.000000000000000, -1.00000000000000 ) );
#227 = CARTESIAN_POINT( '', ( 0.000000000000000, 0.000000000000000, 0.000000000000000 ) );
#228 = DIRECTION( '', ( 1.00000000000000, 0.000000000000000, 0.000000000000000 ) );
#229 = DIRECTION( '', ( 0.000000000000000, 0.000000000000000, -1.00000000000000 ) );
#230 = CARTESIAN_POINT( '', ( 5000.00000000000, 0.000000000000000, 0.000000000000000 ) );
#231 = DIRECTION( '', ( -1.00000000000000, 0.000000000000000, 0.000000000000000 ) );
#232 = DIRECTION( '', ( 0.000000000000000, 0.000000000000000, -1.00000000000000 ) );
#233 = CARTESIAN_POINT( '', ( 0.000000000000000, 0.000000000000000, 0.000000000000000 ) );
#234 = DIRECTION( '', ( 1.00000000000000, 0.000000000000000, 0.000000000000000 ) );
#235 = DIRECTION( '', ( 0.000000000000000, 0.000000000000000, -1.00000000000000 ) );
ENDSEC;
END-ISO-10303-21;
