ISO-10303-21;
HEADER;
FILE_DESCRIPTION (( 'STEP AP203' ),
    '1' );
FILE_NAME ('581207659.STEP',
    '2017-07-31T19:59:32',
    ( '' ),
    ( '' ),
    'SwSTEP 2.0',
    'SolidWorks 2017',
    '' );
FILE_SCHEMA (( 'CONFIG_CONTROL_DESIGN' ));
ENDSEC;

DATA;
#1 = AXIS2_PLACEMENT_3D ( 'NONE', #47, #34, #66 ) ;
#2 = CARTESIAN_POINT ( 'NONE',  ( 0.0000000000000000000, 0.0000000000000000000, -1.250000000000000000 ) ) ;
#3 = FACE_OUTER_BOUND ( 'NONE', #207, .T. ) ;
#4 = LOCAL_TIME ( 15, 59, 32.00000000000000000, #297 ) ;
#5 = EDGE_LOOP ( 'NONE', ( #183 ) ) ;
#6 = ORIENTED_EDGE ( 'NONE', *, *, #124, .F. ) ;
#7 = ADVANCED_FACE ( 'NONE', ( #130, #46 ), #114, .F. ) ;
#8 = PERSON_AND_ORGANIZATION ( #211, #267 ) ;
#9 = ORIENTED_EDGE ( 'NONE', *, *, #298, .F. ) ;
#10 = DATE_AND_TIME ( #23, #22 ) ;
#11 = EDGE_LOOP ( 'NONE', ( #49 ) ) ;
#12 = ORIENTED_EDGE ( 'NONE', *, *, #298, .T. ) ;
#13 = FACE_BOUND ( 'NONE', #21, .T. ) ;
#14 = APPROVAL_PERSON_ORGANIZATION ( #57, #213, #200 ) ;
#15 = CIRCLE ( 'NONE', #43, 3.279999999999999800 ) ;
#16 = EDGE_LOOP ( 'NONE', ( #240 ) ) ;
#17 = AXIS2_PLACEMENT_3D ( 'NONE', #241, #53, #20 ) ;
#18 = CARTESIAN_POINT ( 'NONE',  ( 0.0000000000000000000, 0.0000000000000000000, 0.0000000000000000000 ) ) ;
#19 = CARTESIAN_POINT ( 'NONE',  ( 0.0000000000000000000, 0.0000000000000000000, 0.0000000000000000000 ) ) ;
#20 = DIRECTION ( 'NONE',  ( -1.000000000000000000, 0.0000000000000000000, 0.0000000000000000000 ) ) ;
#21 = EDGE_LOOP ( 'NONE', ( #170 ) ) ;
#22 = LOCAL_TIME ( 15, 59, 32.00000000000000000, #40 ) ;
#23 = CALENDAR_DATE ( 2017, 31, 7 ) ;
#24 = APPROVAL_DATE_TIME ( #10, #213 ) ;
#25 = PERSON_AND_ORGANIZATION ( #211, #267 ) ;
#26 = CC_DESIGN_PERSON_AND_ORGANIZATION_ASSIGNMENT ( #152, #167, ( #87 ) ) ;
#27 = DIRECTION ( 'NONE',  ( -0.0000000000000000000, -0.0000000000000000000, 1.000000000000000000 ) ) ;
#28 = CARTESIAN_POINT ( 'NONE',  ( 0.0000000000000000000, 0.0000000000000000000, -1.509635017889617400 ) ) ;
#29 = CIRCLE ( 'NONE', #231, 3.149999999999999900 ) ;
#30 = DATE_AND_TIME ( #88, #4 ) ;
#31 = AXIS2_PLACEMENT_3D ( 'NONE', #19, #255, #120 ) ;
#32 = FACE_OUTER_BOUND ( 'NONE', #132, .T. ) ;
#33 = FACE_BOUND ( 'NONE', #174, .T. ) ;
#34 = DIRECTION ( 'NONE',  ( -0.0000000000000000000, -0.0000000000000000000, 1.000000000000000000 ) ) ;
#35 = CC_DESIGN_PERSON_AND_ORGANIZATION_ASSIGNMENT ( #8, #163, ( #87 ) ) ;
#36 = CALENDAR_DATE ( 2017, 31, 7 ) ;
#37 = CC_DESIGN_SECURITY_CLASSIFICATION ( #137, ( #87 ) ) ;
#38 = CARTESIAN_POINT ( 'NONE',  ( -6.099999999999999600, 0.0000000000000000000, -1.250000000000000000 ) ) ;
#39 = CARTESIAN_POINT ( 'NONE',  ( -6.200000000000000200, 0.0000000000000000000, -1.349999999999999000 ) ) ;
#40 = COORDINATED_UNIVERSAL_TIME_OFFSET ( 5, 0, .BEHIND. ) ;
#41 = ORIENTED_EDGE ( 'NONE', *, *, #55, .F. ) ;
#42 = DIRECTION ( 'NONE',  ( -1.000000000000000000, 0.0000000000000000000, -0.0000000000000000000 ) ) ;
#43 = AXIS2_PLACEMENT_3D ( 'NONE', #2, #318, #313 ) ;
#44 = EDGE_CURVE ( 'NONE', #141, #141, #15, .T. ) ;
#45 = DIRECTION ( 'NONE',  ( 0.0000000000000000000, 0.0000000000000000000, -1.000000000000000000 ) ) ;
#46 = FACE_OUTER_BOUND ( 'NONE', #138, .T. ) ;
#47 = CARTESIAN_POINT ( 'NONE',  ( 0.0000000000000000000, 0.0000000000000000000, -2.249259271713866900 ) ) ;
#48 = AXIS2_PLACEMENT_3D ( 'NONE', #18, #27, #235 ) ;
#49 = ORIENTED_EDGE ( 'NONE', *, *, #330, .F. ) ;
#50 = AXIS2_PLACEMENT_3D ( 'NONE', #98, #80, #74 ) ;
#51 = ADVANCED_BREP_SHAPE_REPRESENTATION ( '581207659', ( #302, #50 ), #217 ) ;
#52 = COORDINATED_UNIVERSAL_TIME_OFFSET ( 5, 0, .BEHIND. ) ;
#53 = DIRECTION ( 'NONE',  ( -0.0000000000000000000, -0.0000000000000000000, 1.000000000000000000 ) ) ;
#54 = EDGE_LOOP ( 'NONE', ( #191 ) ) ;
#55 = EDGE_CURVE ( 'NONE', #239, #239, #316, .T. ) ;
#56 = CARTESIAN_POINT ( 'NONE',  ( 2.575000000000000200, 0.0000000000000000000, -1.509635017889617400 ) ) ;
#57 = PERSON_AND_ORGANIZATION ( #211, #267 ) ;
#58 = CIRCLE ( 'NONE', #266, 6.200000000000000200 ) ;
#59 = AXIS2_PLACEMENT_3D ( 'NONE', #326, #311, #260 ) ;
#60 = ADVANCED_FACE ( 'NONE', ( #204, #214 ), #320, .F. ) ;
#61 = SECURITY_CLASSIFICATION_LEVEL ( 'unclassified' ) ;
#62 = VERTEX_POINT ( 'NONE', #165 ) ;
#63 = PERSON_AND_ORGANIZATION_ROLE ( 'classification_officer' ) ;
#64 = APPLICATION_CONTEXT ( 'configuration controlled 3d designs of mechanical parts and assemblies' ) ;
#65 = CC_DESIGN_APPROVAL ( #213, ( #137 ) ) ;
#66 = DIRECTION ( 'NONE',  ( 1.000000000000000000, 0.0000000000000000000, 0.0000000000000000000 ) ) ;
#67 = FACE_OUTER_BOUND ( 'NONE', #280, .T. ) ;
#68 = ADVANCED_FACE ( 'NONE', ( #273, #327 ), #102, .T. ) ;
#69 = DIRECTION ( 'NONE',  ( 1.000000000000000000, 0.0000000000000000000, 0.0000000000000000000 ) ) ;
#70 = CARTESIAN_POINT ( 'NONE',  ( 0.0000000000000000000, 0.0000000000000000000, -1.630375746175750400 ) ) ;
#71 = ORIENTED_EDGE ( 'NONE', *, *, #186, .F. ) ;
#72 = FACE_OUTER_BOUND ( 'NONE', #5, .T. ) ;
#73 = PLANE ( 'NONE',  #94 ) ;
#74 = DIRECTION ( 'NONE',  ( 1.000000000000000000, 0.0000000000000000000, 0.0000000000000000000 ) ) ;
#75 = APPLICATION_PROTOCOL_DEFINITION ( 'international standard', 'config_control_design', 1994, #64 ) ;
#76 = EDGE_LOOP ( 'NONE', ( #263 ) ) ;
#77 = VERTEX_POINT ( 'NONE', #210 ) ;
#78 = CIRCLE ( 'NONE', #115, 6.099999999999999600 ) ;
#79 = CARTESIAN_POINT ( 'NONE',  ( 5.070000000000000300, 0.0000000000000000000, -3.000000000000000400 ) ) ;
#80 = DIRECTION ( 'NONE',  ( 0.0000000000000000000, 0.0000000000000000000, 1.000000000000000000 ) ) ;
#81 = CARTESIAN_POINT ( 'NONE',  ( 5.069999999999999400, 0.0000000000000000000, -2.370000000000000100 ) ) ;
#82 = CC_DESIGN_PERSON_AND_ORGANIZATION_ASSIGNMENT ( #136, #63, ( #137 ) ) ;
#83 = CC_DESIGN_PERSON_AND_ORGANIZATION_ASSIGNMENT ( #168, #123, ( #279 ) ) ;
#84 = DIRECTION ( 'NONE',  ( -0.0000000000000000000, -0.0000000000000000000, 1.000000000000000000 ) ) ;
#85 = AXIS2_PLACEMENT_3D ( 'NONE', #332, #185, #323 ) ;
#86 = DIRECTION ( 'NONE',  ( 0.0000000000000000000, -0.0000000000000000000, 1.000000000000000000 ) ) ;
#87 = PRODUCT_DEFINITION_FORMATION_WITH_SPECIFIED_SOURCE ( 'ANY', '', #259, .NOT_KNOWN. ) ;
#88 = CALENDAR_DATE ( 2017, 31, 7 ) ;
#89 = FACE_OUTER_BOUND ( 'NONE', #276, .T. ) ;
#90 = DIRECTION ( 'NONE',  ( 0.0000000000000000000, 0.0000000000000000000, -1.000000000000000000 ) ) ;
#91 = CC_DESIGN_DATE_AND_TIME_ASSIGNMENT ( #30, #275, ( #137 ) ) ;
#92 = CARTESIAN_POINT ( 'NONE',  ( 0.0000000000000000000, 0.0000000000000000000, -1.349999999999999000 ) ) ;
#93 = DIRECTION ( 'NONE',  ( 1.000000000000000000, 0.0000000000000000000, 0.0000000000000000000 ) ) ;
#94 = AXIS2_PLACEMENT_3D ( 'NONE', #148, #45, #42 ) ;
#95 = APPROVAL_STATUS ( 'not_yet_approved' ) ;
#96 = CONICAL_SURFACE ( 'NONE', #270, 2.667647619362185600, 1.308996938995750100 ) ;
#97 = PERSON_AND_ORGANIZATION ( #211, #267 ) ;
#98 = CARTESIAN_POINT ( 'NONE',  ( 0.0000000000000000000, 0.0000000000000000000, 0.0000000000000000000 ) ) ;
#99 = CARTESIAN_POINT ( 'NONE',  ( -3.279999999999999800, 0.0000000000000000000, -1.250000000000000000 ) ) ;
#100 = LOCAL_TIME ( 15, 59, 32.00000000000000000, #177 ) ;
#101 = DATE_AND_TIME ( #171, #100 ) ;
#102 = CYLINDRICAL_SURFACE ( 'NONE', #31, 6.200000000000000200 ) ;
#103 = APPROVAL ( #268, 'UNSPECIFIED' ) ;
#104 = EDGE_LOOP ( 'NONE', ( #304 ) ) ;
#105 = FACE_BOUND ( 'NONE', #16, .T. ) ;
#106 = APPROVAL ( #95, 'UNSPECIFIED' ) ;
#107 = PRODUCT_DEFINITION_SHAPE ( 'NONE', 'NONE',  #279 ) ;
#108 = CARTESIAN_POINT ( 'NONE',  ( 0.0000000000000000000, 3.149999999999999900, -1.250000000000000000 ) ) ;
#109 = CIRCLE ( 'NONE', #310, 6.200000000000000200 ) ;
#110 = CARTESIAN_POINT ( 'NONE',  ( 0.0000000000000000000, 0.0000000000000000000, 0.0000000000000000000 ) ) ;
#111 = DIRECTION ( 'NONE',  ( 0.0000000000000000000, 0.0000000000000000000, -1.000000000000000000 ) ) ;
#112 = ORIENTED_EDGE ( 'NONE', *, *, #44, .F. ) ;
#113 = DIRECTION ( 'NONE',  ( -1.000000000000000000, 0.0000000000000000000, 0.0000000000000000000 ) ) ;
#114 = TOROIDAL_SURFACE ( 'NONE', #142, 4.945000000000000300, 0.1249999999999995600 ) ;
#115 = AXIS2_PLACEMENT_3D ( 'NONE', #314, #308, #329 ) ;
#116 = ADVANCED_FACE ( 'NONE', ( #278, #33 ), #331, .T. ) ;
#117 = APPROVAL_ROLE ( '' ) ;
#118 = CIRCLE ( 'NONE', #172, 2.575000000000000200 ) ;
#119 = DIRECTION ( 'NONE',  ( 0.0000000000000000000, 0.0000000000000000000, -1.000000000000000000 ) ) ;
#120 = DIRECTION ( 'NONE',  ( 1.000000000000000000, 0.0000000000000000000, 0.0000000000000000000 ) ) ;
#121 = ORIENTED_EDGE ( 'NONE', *, *, #301, .F. ) ;
#122 = APPROVAL_PERSON_ORGANIZATION ( #189, #103, #117 ) ;
#123 = PERSON_AND_ORGANIZATION_ROLE ( 'creator' ) ;
#124 = EDGE_CURVE ( 'NONE', #188, #188, #315, .T. ) ;
#125 = DATE_TIME_ROLE ( 'creation_date' ) ;
#126 = DIRECTION ( 'NONE',  ( 1.000000000000000000, 0.0000000000000000000, 0.0000000000000000000 ) ) ;
#127 = CARTESIAN_POINT ( 'NONE',  ( 0.0000000000000000000, 0.0000000000000000000, -2.370000000000000100 ) ) ;
#128 = DIRECTION ( 'NONE',  ( -0.0000000000000000000, -0.0000000000000000000, 1.000000000000000000 ) ) ;
#129 = EDGE_LOOP ( 'NONE', ( #12 ) ) ;
#130 = FACE_OUTER_BOUND ( 'NONE', #262, .T. ) ;
#131 = VERTEX_POINT ( 'NONE', #212 ) ;
#132 = EDGE_LOOP ( 'NONE', ( #9 ) ) ;
#133 = DIRECTION ( 'NONE',  ( 1.000000000000000000, 0.0000000000000000000, 0.0000000000000000000 ) ) ;
#134 = AXIS2_PLACEMENT_3D ( 'NONE', #247, #86, #254 ) ;
#135 =( LENGTH_UNIT ( ) NAMED_UNIT ( * ) SI_UNIT ( $, .METRE. ) );
#136 = PERSON_AND_ORGANIZATION ( #211, #267 ) ;
#137 = SECURITY_CLASSIFICATION ( '', '', #61 ) ;
#138 = EDGE_LOOP ( 'NONE', ( #238 ) ) ;
#139 = CARTESIAN_POINT ( 'NONE',  ( 0.0000000000000000000, 0.0000000000000000000, -1.120000000000000100 ) ) ;
#140 = CYLINDRICAL_SURFACE ( 'NONE', #48, 3.149999999999999900 ) ;
#141 = VERTEX_POINT ( 'NONE', #99 ) ;
#142 = AXIS2_PLACEMENT_3D ( 'NONE', #127, #206, #93 ) ;
#143 = ADVANCED_FACE ( 'NONE', ( #184, #257 ), #159, .F. ) ;
#144 = EDGE_LOOP ( 'NONE', ( #319 ) ) ;
#145 = VERTEX_POINT ( 'NONE', #190 ) ;
#146 = DIRECTION ( 'NONE',  ( -0.0000000000000000000, -0.0000000000000000000, 1.000000000000000000 ) ) ;
#147 = EDGE_LOOP ( 'NONE', ( #71 ) ) ;
#148 = CARTESIAN_POINT ( 'NONE',  ( 0.0000000000000000000, 2.575000000000000200, 0.0000000000000000000 ) ) ;
#149 = EDGE_LOOP ( 'NONE', ( #41 ) ) ;
#150 = DIRECTION ( 'NONE',  ( 1.000000000000000000, 0.0000000000000000000, 0.0000000000000000000 ) ) ;
#151 = ADVANCED_FACE ( 'NONE', ( #105, #67 ), #73, .F. ) ;
#152 = PERSON_AND_ORGANIZATION ( #211, #267 ) ;
#153 = UNCERTAINTY_MEASURE_WITH_UNIT (LENGTH_MEASURE( 1.000000000000000100E-005 ), #232, 'distance_accuracy_value', 'NONE');
#154 = APPROVAL_DATE_TIME ( #101, #103 ) ;
#155 = DIRECTION ( 'NONE',  ( -0.0000000000000000000, -0.0000000000000000000, 1.000000000000000000 ) ) ;
#156 = DIRECTION ( 'NONE',  ( 1.000000000000000000, 0.0000000000000000000, 0.0000000000000000000 ) ) ;
#157 = VERTEX_POINT ( 'NONE', #202 ) ;
#158 =( NAMED_UNIT ( * ) PLANE_ANGLE_UNIT ( ) SI_UNIT ( $, .RADIAN. ) );
#159 = PLANE ( 'NONE',  #164 ) ;
#160 = DIRECTION ( 'NONE',  ( -1.000000000000000000, 0.0000000000000000000, -0.0000000000000000000 ) ) ;
#161 = ORIENTED_EDGE ( 'NONE', *, *, #195, .F. ) ;
#162 = EDGE_LOOP ( 'NONE', ( #307 ) ) ;
#163 = PERSON_AND_ORGANIZATION_ROLE ( 'creator' ) ;
#164 = AXIS2_PLACEMENT_3D ( 'NONE', #108, #90, #160 ) ;
#165 = CARTESIAN_POINT ( 'NONE',  ( 6.200000000000000200, 0.0000000000000000000, -3.000000000000000400 ) ) ;
#166 = CIRCLE ( 'NONE', #85, 2.667647619362185600 ) ;
#167 = PERSON_AND_ORGANIZATION_ROLE ( 'design_supplier' ) ;
#168 = PERSON_AND_ORGANIZATION ( #211, #267 ) ;
#169 =( NAMED_UNIT ( * ) SI_UNIT ( $, .STERADIAN. ) SOLID_ANGLE_UNIT ( ) );
#170 = ORIENTED_EDGE ( 'NONE', *, *, #330, .T. ) ;
#171 = CALENDAR_DATE ( 2017, 31, 7 ) ;
#172 = AXIS2_PLACEMENT_3D ( 'NONE', #250, #224, #252 ) ;
#173 = CARTESIAN_POINT ( 'NONE',  ( 0.0000000000000000000, 0.0000000000000000000, -3.000000000000000400 ) ) ;
#174 = EDGE_LOOP ( 'NONE', ( #201 ) ) ;
#175 = CIRCLE ( 'NONE', #312, 5.070000000000000300 ) ;
#176 = AXIS2_PLACEMENT_3D ( 'NONE', #205, #155, #306 ) ;
#177 = COORDINATED_UNIVERSAL_TIME_OFFSET ( 5, 0, .BEHIND. ) ;
#178 = PRODUCT_RELATED_PRODUCT_CATEGORY ( 'detail', '', ( #259 ) ) ;
#179 = AXIS2_PLACEMENT_3D ( 'NONE', #253, #193, #156 ) ;
#180 = CALENDAR_DATE ( 2017, 31, 7 ) ;
#181 = CIRCLE ( 'NONE', #1, 4.977352380637814400 ) ;
#182 = AXIS2_PLACEMENT_3D ( 'NONE', #139, #244, #236 ) ;
#183 = ORIENTED_EDGE ( 'NONE', *, *, #296, .T. ) ;
#184 = FACE_BOUND ( 'NONE', #187, .T. ) ;
#185 = DIRECTION ( 'NONE',  ( -0.0000000000000000000, -0.0000000000000000000, 1.000000000000000000 ) ) ;
#186 = EDGE_CURVE ( 'NONE', #131, #131, #29, .T. ) ;
#187 = EDGE_LOOP ( 'NONE', ( #269 ) ) ;
#188 = VERTEX_POINT ( 'NONE', #56 ) ;
#189 = PERSON_AND_ORGANIZATION ( #211, #267 ) ;
#190 = CARTESIAN_POINT ( 'NONE',  ( 4.977352380637814400, 0.0000000000000000000, -2.249259271713866900 ) ) ;
#191 = ORIENTED_EDGE ( 'NONE', *, *, #248, .T. ) ;
#192 = VERTEX_POINT ( 'NONE', #38 ) ;
#193 = DIRECTION ( 'NONE',  ( -0.0000000000000000000, -0.0000000000000000000, 1.000000000000000000 ) ) ;
#194 = EDGE_LOOP ( 'NONE', ( #288 ) ) ;
#195 = EDGE_CURVE ( 'NONE', #309, #309, #249, .T. ) ;
#196 = VERTEX_POINT ( 'NONE', #79 ) ;
#197 = APPROVAL_ROLE ( '' ) ;
#198 = DIMENSIONAL_EXPONENTS ( 1.000000000000000000, 0.0000000000000000000, 0.0000000000000000000, 0.0000000000000000000, 0.0000000000000000000, 0.0000000000000000000, 0.0000000000000000000 ) ;
#199 = FACE_OUTER_BOUND ( 'NONE', #283, .T. ) ;
#200 = APPROVAL_ROLE ( '' ) ;
#201 = ORIENTED_EDGE ( 'NONE', *, *, #322, .F. ) ;
#202 = CARTESIAN_POINT ( 'NONE',  ( 2.667647619362185600, 0.0000000000000000000, -1.630375746175750400 ) ) ;
#203 = TOROIDAL_SURFACE ( 'NONE', #182, 3.279999999999999800, 0.1300000000000000000 ) ;
#204 = FACE_OUTER_BOUND ( 'NONE', #11, .T. ) ;
#205 = CARTESIAN_POINT ( 'NONE',  ( 0.0000000000000000000, 0.0000000000000000000, 0.0000000000000000000 ) ) ;
#206 = DIRECTION ( 'NONE',  ( -0.0000000000000000000, -0.0000000000000000000, 1.000000000000000000 ) ) ;
#207 = EDGE_LOOP ( 'NONE', ( #292 ) ) ;
#208 = FACE_BOUND ( 'NONE', #54, .T. ) ;
#209 = SHAPE_DEFINITION_REPRESENTATION ( #107, #51 ) ;
#210 = CARTESIAN_POINT ( 'NONE',  ( 2.575000000000000200, 0.0000000000000000000, 0.0000000000000000000 ) ) ;
#211 = PERSON ( 'UNSPECIFIED', 'UNSPECIFIED', 'UNSPECIFIED', ('UNSPECIFIED'), ('UNSPECIFIED'), ('UNSPECIFIED') ) ;
#212 = CARTESIAN_POINT ( 'NONE',  ( 3.149999999999999900, 0.0000000000000000000, 0.0000000000000000000 ) ) ;
#213 = APPROVAL ( #277, 'UNSPECIFIED' ) ;
#214 = FACE_OUTER_BOUND ( 'NONE', #104, .T. ) ;
#215 = DIRECTION ( 'NONE',  ( 1.000000000000000000, 0.0000000000000000000, 0.0000000000000000000 ) ) ;
#216 = DIRECTION ( 'NONE',  ( -1.000000000000000000, 0.0000000000000000000, 0.0000000000000000000 ) ) ;
#217 =( GEOMETRIC_REPRESENTATION_CONTEXT ( 3 ) GLOBAL_UNCERTAINTY_ASSIGNED_CONTEXT ( ( #153 ) ) GLOBAL_UNIT_ASSIGNED_CONTEXT ( ( #232, #158, #169 ) ) REPRESENTATION_CONTEXT ( 'NONE', 'WORKASPACE' ) );
#218 = ORIENTED_EDGE ( 'NONE', *, *, #186, .T. ) ;
#219 = LOCAL_TIME ( 15, 59, 32.00000000000000000, #52 ) ;
#220 = DIRECTION ( 'NONE',  ( -0.0000000000000000000, -0.0000000000000000000, 1.000000000000000000 ) ) ;
#221 = FACE_OUTER_BOUND ( 'NONE', #162, .T. ) ;
#222 = ADVANCED_FACE ( 'NONE', ( #221, #289 ), #140, .T. ) ;
#223 = CC_DESIGN_DATE_AND_TIME_ASSIGNMENT ( #233, #125, ( #279 ) ) ;
#224 = DIRECTION ( 'NONE',  ( -0.0000000000000000000, -0.0000000000000000000, 1.000000000000000000 ) ) ;
#225 = MECHANICAL_CONTEXT ( 'NONE', #64, 'mechanical' ) ;
#226 = CYLINDRICAL_SURFACE ( 'NONE', #179, 2.575000000000000200 ) ;
#227 = APPROVAL_PERSON_ORGANIZATION ( #97, #106, #197 ) ;
#228 = CARTESIAN_POINT ( 'NONE',  ( 0.0000000000000000000, 0.0000000000000000000, -2.370000000000000100 ) ) ;
#229 = ADVANCED_FACE ( 'NONE', ( #285, #208 ), #96, .F. ) ;
#230 = CLOSED_SHELL ( 'NONE', ( #274, #229, #7, #60, #324, #68, #143, #222, #151, #246, #116, #245 ) ) ;
#231 = AXIS2_PLACEMENT_3D ( 'NONE', #110, #261, #126 ) ;
#232 =( CONVERSION_BASED_UNIT ( 'INCH', #299 ) LENGTH_UNIT ( ) NAMED_UNIT ( #198 ) );
#233 = DATE_AND_TIME ( #36, #219 ) ;
#234 = DATE_AND_TIME ( #180, #281 ) ;
#235 = DIRECTION ( 'NONE',  ( 1.000000000000000000, 0.0000000000000000000, 0.0000000000000000000 ) ) ;
#236 = DIRECTION ( 'NONE',  ( -1.000000000000000000, 0.0000000000000000000, 0.0000000000000000000 ) ) ;
#237 = VERTEX_POINT ( 'NONE', #39 ) ;
#238 = ORIENTED_EDGE ( 'NONE', *, *, #301, .T. ) ;
#239 = VERTEX_POINT ( 'NONE', #291 ) ;
#240 = ORIENTED_EDGE ( 'NONE', *, *, #296, .F. ) ;
#241 = CARTESIAN_POINT ( 'NONE',  ( 0.0000000000000000000, 0.0000000000000000000, -1.120000000000000100 ) ) ;
#242 = ORIENTED_EDGE ( 'NONE', *, *, #124, .T. ) ;
#243 = EDGE_LOOP ( 'NONE', ( #242 ) ) ;
#244 = DIRECTION ( 'NONE',  ( 0.0000000000000000000, 0.0000000000000000000, -1.000000000000000000 ) ) ;
#245 = ADVANCED_FACE ( 'NONE', ( #199, #305 ), #203, .F. ) ;
#246 = ADVANCED_FACE ( 'NONE', ( #89, #72 ), #226, .F. ) ;
#247 = CARTESIAN_POINT ( 'NONE',  ( 0.0000000000000000000, 6.200000000000000200, -3.000000000000000400 ) ) ;
#248 = EDGE_CURVE ( 'NONE', #157, #157, #166, .T. ) ;
#249 = CIRCLE ( 'NONE', #325, 5.069999999999999400 ) ;
#250 = CARTESIAN_POINT ( 'NONE',  ( 0.0000000000000000000, 0.0000000000000000000, 0.0000000000000000000 ) ) ;
#251 = EDGE_LOOP ( 'NONE', ( #121 ) ) ;
#252 = DIRECTION ( 'NONE',  ( 1.000000000000000000, 0.0000000000000000000, 0.0000000000000000000 ) ) ;
#253 = CARTESIAN_POINT ( 'NONE',  ( 0.0000000000000000000, 0.0000000000000000000, 0.0000000000000000000 ) ) ;
#254 = DIRECTION ( 'NONE',  ( 1.000000000000000000, 0.0000000000000000000, 0.0000000000000000000 ) ) ;
#255 = DIRECTION ( 'NONE',  ( -0.0000000000000000000, -0.0000000000000000000, 1.000000000000000000 ) ) ;
#256 = CC_DESIGN_APPROVAL ( #106, ( #87 ) ) ;
#257 = FACE_OUTER_BOUND ( 'NONE', #76, .T. ) ;
#258 = APPLICATION_CONTEXT ( 'configuration controlled 3d designs of mechanical parts and assemblies' ) ;
#259 = PRODUCT ( '581207659', '581207659', '', ( #225 ) ) ;
#260 = DIRECTION ( 'NONE',  ( -1.000000000000000000, 0.0000000000000000000, 0.0000000000000000000 ) ) ;
#261 = DIRECTION ( 'NONE',  ( -0.0000000000000000000, -0.0000000000000000000, 1.000000000000000000 ) ) ;
#262 = EDGE_LOOP ( 'NONE', ( #161 ) ) ;
#263 = ORIENTED_EDGE ( 'NONE', *, *, #322, .T. ) ;
#264 = CC_DESIGN_PERSON_AND_ORGANIZATION_ASSIGNMENT ( #25, #303, ( #259 ) ) ;
#265 = APPLICATION_PROTOCOL_DEFINITION ( 'international standard', 'config_control_design', 1994, #258 ) ;
#266 = AXIS2_PLACEMENT_3D ( 'NONE', #92, #119, #216 ) ;
#267 = ORGANIZATION ( 'UNSPECIFIED', 'UNSPECIFIED', '' ) ;
#268 = APPROVAL_STATUS ( 'not_yet_approved' ) ;
#269 = ORIENTED_EDGE ( 'NONE', *, *, #44, .T. ) ;
#270 = AXIS2_PLACEMENT_3D ( 'NONE', #70, #111, #113 ) ;
#271 = TOROIDAL_SURFACE ( 'NONE', #317, 2.700000000000000200, 0.1249999999999996900 ) ;
#272 = COORDINATED_UNIVERSAL_TIME_OFFSET ( 5, 0, .BEHIND. ) ;
#273 = FACE_OUTER_BOUND ( 'NONE', #144, .T. ) ;
#274 = ADVANCED_FACE ( 'NONE', ( #3, #300 ), #271, .T. ) ;
#275 = DATE_TIME_ROLE ( 'classification_date' ) ;
#276 = EDGE_LOOP ( 'NONE', ( #6 ) ) ;
#277 = APPROVAL_STATUS ( 'not_yet_approved' ) ;
#278 = FACE_OUTER_BOUND ( 'NONE', #194, .T. ) ;
#279 = PRODUCT_DEFINITION ( 'UNKNOWN', '', #87, #284 ) ;
#280 = EDGE_LOOP ( 'NONE', ( #218 ) ) ;
#281 = LOCAL_TIME ( 15, 59, 32.00000000000000000, #272 ) ;
#282 = CARTESIAN_POINT ( 'NONE',  ( 0.0000000000000000000, 0.0000000000000000000, -3.000000000000000400 ) ) ;
#283 = EDGE_LOOP ( 'NONE', ( #112 ) ) ;
#284 = DESIGN_CONTEXT ( 'detailed design', #258, 'design' ) ;
#285 = FACE_OUTER_BOUND ( 'NONE', #251, .T. ) ;
#286 = DIRECTION ( 'NONE',  ( 1.000000000000000000, 0.0000000000000000000, 0.0000000000000000000 ) ) ;
#287 = CC_DESIGN_APPROVAL ( #103, ( #279 ) ) ;
#288 = ORIENTED_EDGE ( 'NONE', *, *, #290, .F. ) ;
#289 = FACE_OUTER_BOUND ( 'NONE', #147, .T. ) ;
#290 = EDGE_CURVE ( 'NONE', #237, #237, #58, .T. ) ;
#291 = CARTESIAN_POINT ( 'NONE',  ( -3.149999999999999900, 0.0000000000000000000, -1.120000000000000100 ) ) ;
#292 = ORIENTED_EDGE ( 'NONE', *, *, #248, .F. ) ;
#293 = APPROVAL_DATE_TIME ( #234, #106 ) ;
#294 = AXIS2_PLACEMENT_3D ( 'NONE', #28, #220, #286 ) ;
#295 = DIRECTION ( 'NONE',  ( -0.0000000000000000000, -0.0000000000000000000, 1.000000000000000000 ) ) ;
#296 = EDGE_CURVE ( 'NONE', #77, #77, #118, .T. ) ;
#297 = COORDINATED_UNIVERSAL_TIME_OFFSET ( 5, 0, .BEHIND. ) ;
#298 = EDGE_CURVE ( 'NONE', #62, #62, #109, .T. ) ;
#299 = LENGTH_MEASURE_WITH_UNIT ( LENGTH_MEASURE( 0.02539999999999999900 ), #135 );
#300 = FACE_OUTER_BOUND ( 'NONE', #243, .T. ) ;
#301 = EDGE_CURVE ( 'NONE', #145, #145, #181, .T. ) ;
#302 = MANIFOLD_SOLID_BREP ( 'Fillet1', #230 ) ;
#303 = PERSON_AND_ORGANIZATION_ROLE ( 'design_owner' ) ;
#304 = ORIENTED_EDGE ( 'NONE', *, *, #195, .T. ) ;
#305 = FACE_OUTER_BOUND ( 'NONE', #149, .T. ) ;
#306 = DIRECTION ( 'NONE',  ( 1.000000000000000000, 0.0000000000000000000, 0.0000000000000000000 ) ) ;
#307 = ORIENTED_EDGE ( 'NONE', *, *, #55, .T. ) ;
#308 = DIRECTION ( 'NONE',  ( -0.0000000000000000000, -0.0000000000000000000, 1.000000000000000000 ) ) ;
#309 = VERTEX_POINT ( 'NONE', #81 ) ;
#310 = AXIS2_PLACEMENT_3D ( 'NONE', #173, #295, #215 ) ;
#311 = DIRECTION ( 'NONE',  ( 0.0000000000000000000, 0.0000000000000000000, -1.000000000000000000 ) ) ;
#312 = AXIS2_PLACEMENT_3D ( 'NONE', #282, #84, #69 ) ;
#313 = DIRECTION ( 'NONE',  ( -1.000000000000000000, 0.0000000000000000000, 0.0000000000000000000 ) ) ;
#314 = CARTESIAN_POINT ( 'NONE',  ( 0.0000000000000000000, 0.0000000000000000000, -1.250000000000000000 ) ) ;
#315 = CIRCLE ( 'NONE', #294, 2.575000000000000200 ) ;
#316 = CIRCLE ( 'NONE', #17, 3.149999999999999900 ) ;
#317 = AXIS2_PLACEMENT_3D ( 'NONE', #328, #128, #133 ) ;
#318 = DIRECTION ( 'NONE',  ( 0.0000000000000000000, 0.0000000000000000000, -1.000000000000000000 ) ) ;
#319 = ORIENTED_EDGE ( 'NONE', *, *, #290, .T. ) ;
#320 = CYLINDRICAL_SURFACE ( 'NONE', #176, 5.070000000000000300 ) ;
#321 = PLANE ( 'NONE',  #134 ) ;
#322 = EDGE_CURVE ( 'NONE', #192, #192, #78, .T. ) ;
#323 = DIRECTION ( 'NONE',  ( 1.000000000000000000, 0.0000000000000000000, 0.0000000000000000000 ) ) ;
#324 = ADVANCED_FACE ( 'NONE', ( #32, #13 ), #321, .F. ) ;
#325 = AXIS2_PLACEMENT_3D ( 'NONE', #228, #146, #150 ) ;
#326 = CARTESIAN_POINT ( 'NONE',  ( 0.0000000000000000000, 0.0000000000000000000, -1.250000000000000000 ) ) ;
#327 = FACE_OUTER_BOUND ( 'NONE', #129, .T. ) ;
#328 = CARTESIAN_POINT ( 'NONE',  ( 0.0000000000000000000, 0.0000000000000000000, -1.509635017889617400 ) ) ;
#329 = DIRECTION ( 'NONE',  ( -1.000000000000000000, 0.0000000000000000000, 0.0000000000000000000 ) ) ;
#330 = EDGE_CURVE ( 'NONE', #196, #196, #175, .T. ) ;
#331 = CONICAL_SURFACE ( 'NONE', #59, 6.099999999999999600, 0.7853981633974566100 ) ;
#332 = CARTESIAN_POINT ( 'NONE',  ( 0.0000000000000000000, 0.0000000000000000000, -1.630375746175750400 ) ) ;
ENDSEC;
END-ISO-10303-21;
