ISO-10303-21;
HEADER;
FILE_DESCRIPTION (( 'STEP AP203' ),
    '1' );
FILE_NAME ('581207658.STEP',
    '2017-07-31T19:58:04',
    ( '' ),
    ( '' ),
    'SwSTEP 2.0',
    'SolidWorks 2017',
    '' );
FILE_SCHEMA (( 'CONFIG_CONTROL_DESIGN' ));
ENDSEC;

DATA;
#1 = VERTEX_POINT ( 'NONE', #88 ) ;
#2 = LOCAL_TIME ( 15, 58, 4.000000000000000000, #207 ) ;
#3 = AXIS2_PLACEMENT_3D ( 'NONE', #108, #189, #188 ) ;
#4 = CARTESIAN_POINT ( 'NONE',  ( 0.0000000000000000000, 0.0000000000000000000, -1.569426078613846500 ) ) ;
#5 = FACE_OUTER_BOUND ( 'NONE', #106, .T. ) ;
#6 = EDGE_LOOP ( 'NONE', ( #81 ) ) ;
#7 = EDGE_LOOP ( 'NONE', ( #212 ) ) ;
#8 = DIRECTION ( 'NONE',  ( 0.0000000000000000000, 0.0000000000000000000, -1.000000000000000000 ) ) ;
#9 = APPROVAL_STATUS ( 'not_yet_approved' ) ;
#10 = ORIENTED_EDGE ( 'NONE', *, *, #33, .F. ) ;
#11 = VERTEX_POINT ( 'NONE', #256 ) ;
#12 = EDGE_LOOP ( 'NONE', ( #166 ) ) ;
#13 = DATE_AND_TIME ( #216, #191 ) ;
#14 = APPROVAL_STATUS ( 'not_yet_approved' ) ;
#15 = EDGE_LOOP ( 'NONE', ( #282 ) ) ;
#16 = DIRECTION ( 'NONE',  ( -0.0000000000000000000, -0.0000000000000000000, 1.000000000000000000 ) ) ;
#17 = DIRECTION ( 'NONE',  ( 0.0000000000000000000, 0.0000000000000000000, 1.000000000000000000 ) ) ;
#18 = EDGE_LOOP ( 'NONE', ( #317 ) ) ;
#19 = LOCAL_TIME ( 15, 58, 4.000000000000000000, #289 ) ;
#20 = AXIS2_PLACEMENT_3D ( 'NONE', #112, #119, #213 ) ;
#21 = FACE_BOUND ( 'NONE', #320, .T. ) ;
#22 = ORIENTED_EDGE ( 'NONE', *, *, #104, .F. ) ;
#23 = AXIS2_PLACEMENT_3D ( 'NONE', #93, #272, #100 ) ;
#24 = VERTEX_POINT ( 'NONE', #223 ) ;
#25 = DIRECTION ( 'NONE',  ( -0.0000000000000000000, -0.0000000000000000000, 1.000000000000000000 ) ) ;
#26 =( NAMED_UNIT ( * ) SI_UNIT ( $, .STERADIAN. ) SOLID_ANGLE_UNIT ( ) );
#27 = DIRECTION ( 'NONE',  ( 1.000000000000000000, 0.0000000000000000000, 0.0000000000000000000 ) ) ;
#28 = EDGE_LOOP ( 'NONE', ( #101 ) ) ;
#29 = VERTEX_POINT ( 'NONE', #133 ) ;
#30 = PRODUCT_DEFINITION ( 'UNKNOWN', '', #325, #143 ) ;
#31 = EDGE_CURVE ( 'NONE', #273, #273, #306, .T. ) ;
#32 = ORIENTED_EDGE ( 'NONE', *, *, #187, .F. ) ;
#33 = EDGE_CURVE ( 'NONE', #165, #165, #180, .T. ) ;
#34 = FACE_OUTER_BOUND ( 'NONE', #125, .T. ) ;
#35 = DIRECTION ( 'NONE',  ( 0.0000000000000000000, -0.0000000000000000000, 1.000000000000000000 ) ) ;
#36 = CC_DESIGN_APPROVAL ( #161, ( #325 ) ) ;
#37 = CARTESIAN_POINT ( 'NONE',  ( 0.0000000000000000000, 0.0000000000000000000, -3.000000000000000400 ) ) ;
#38 = APPLICATION_PROTOCOL_DEFINITION ( 'international standard', 'config_control_design', 1994, #70 ) ;
#39 = FACE_OUTER_BOUND ( 'NONE', #274, .T. ) ;
#40 = APPROVAL_PERSON_ORGANIZATION ( #163, #158, #206 ) ;
#41 = APPROVAL ( #214, 'UNSPECIFIED' ) ;
#42 = CC_DESIGN_PERSON_AND_ORGANIZATION_ASSIGNMENT ( #261, #234, ( #325 ) ) ;
#43 = APPLICATION_CONTEXT ( 'configuration controlled 3d designs of mechanical parts and assemblies' ) ;
#44 = CYLINDRICAL_SURFACE ( 'NONE', #56, 1.770999999999999700 ) ;
#45 = APPROVAL_PERSON_ORGANIZATION ( #135, #161, #197 ) ;
#46 = CARTESIAN_POINT ( 'NONE',  ( -6.200000000000000200, 0.0000000000000000000, -1.349999999999999000 ) ) ;
#47 = TOROIDAL_SURFACE ( 'NONE', #111, 2.294999999999999900, 0.1300000000000000000 ) ;
#48 = DATE_AND_TIME ( #327, #19 ) ;
#49 = EDGE_LOOP ( 'NONE', ( #10 ) ) ;
#50 = PRODUCT_DEFINITION_SHAPE ( 'NONE', 'NONE',  #30 ) ;
#51 = EDGE_CURVE ( 'NONE', #215, #215, #109, .T. ) ;
#53 = CIRCLE ( 'NONE', #322, 2.294999999999999900 ) ;
#52 = CARTESIAN_POINT ( 'NONE',  ( 0.0000000000000000000, 0.0000000000000000000, -1.250000000000000000 ) ) ;
#54 = ADVANCED_FACE ( 'NONE', ( #34, #316 ), #61, .T. ) ;
#55 = DIRECTION ( 'NONE',  ( 1.000000000000000000, 0.0000000000000000000, 0.0000000000000000000 ) ) ;
#56 = AXIS2_PLACEMENT_3D ( 'NONE', #239, #80, #160 ) ;
#57 = DIRECTION ( 'NONE',  ( 1.000000000000000000, 0.0000000000000000000, 0.0000000000000000000 ) ) ;
#58 = SECURITY_CLASSIFICATION ( '', '', #155 ) ;
#59 = FACE_OUTER_BOUND ( 'NONE', #288, .T. ) ;
#60 = DIRECTION ( 'NONE',  ( -1.000000000000000000, 0.0000000000000000000, 0.0000000000000000000 ) ) ;
#61 = CONICAL_SURFACE ( 'NONE', #132, 6.099999999999999600, 0.7853981633974566100 ) ;
#62 = ORIENTED_EDGE ( 'NONE', *, *, #267, .F. ) ;
#63 = DIRECTION ( 'NONE',  ( 1.000000000000000000, 0.0000000000000000000, 0.0000000000000000000 ) ) ;
#64 = PERSON_AND_ORGANIZATION_ROLE ( 'design_owner' ) ;
#65 = EDGE_LOOP ( 'NONE', ( #275 ) ) ;
#66 = DIRECTION ( 'NONE',  ( -0.0000000000000000000, -0.0000000000000000000, 1.000000000000000000 ) ) ;
#67 = ORIENTED_EDGE ( 'NONE', *, *, #315, .F. ) ;
#68 = EDGE_LOOP ( 'NONE', ( #307 ) ) ;
#69 = PERSON_AND_ORGANIZATION ( #295, #319 ) ;
#70 = APPLICATION_CONTEXT ( 'configuration controlled 3d designs of mechanical parts and assemblies' ) ;
#71 = CARTESIAN_POINT ( 'NONE',  ( 0.0000000000000000000, 0.0000000000000000000, -1.697451086505433500 ) ) ;
#72 = DIRECTION ( 'NONE',  ( 1.000000000000000000, 0.0000000000000000000, 0.0000000000000000000 ) ) ;
#73 = CC_DESIGN_PERSON_AND_ORGANIZATION_ASSIGNMENT ( #186, #97, ( #30 ) ) ;
#74 = FACE_OUTER_BOUND ( 'NONE', #146, .T. ) ;
#75 = APPROVAL_DATE_TIME ( #48, #158 ) ;
#76 = ORIENTED_EDGE ( 'NONE', *, *, #33, .T. ) ;
#77 = DIRECTION ( 'NONE',  ( -0.0000000000000000000, -0.0000000000000000000, 1.000000000000000000 ) ) ;
#78 =( CONVERSION_BASED_UNIT ( 'INCH', #89 ) LENGTH_UNIT ( ) NAMED_UNIT ( #222 ) );
#79 = AXIS2_PLACEMENT_3D ( 'NONE', #283, #237, #123 ) ;
#81 = ORIENTED_EDGE ( 'NONE', *, *, #31, .F. ) ;
#80 = DIRECTION ( 'NONE',  ( -0.0000000000000000000, -0.0000000000000000000, 1.000000000000000000 ) ) ;
#82 = EDGE_CURVE ( 'NONE', #1, #1, #203, .T. ) ;
#83 = DIRECTION ( 'NONE',  ( -1.000000000000000000, 0.0000000000000000000, 0.0000000000000000000 ) ) ;
#84 = ADVANCED_FACE ( 'NONE', ( #310, #190 ), #47, .F. ) ;
#85 = EDGE_LOOP ( 'NONE', ( #76 ) ) ;
#86 = CYLINDRICAL_SURFACE ( 'NONE', #252, 6.200000000000000200 ) ;
#87 = CARTESIAN_POINT ( 'NONE',  ( 0.0000000000000000000, 0.0000000000000000000, -1.250000000000000000 ) ) ;
#88 = CARTESIAN_POINT ( 'NONE',  ( 4.966574263096702200, 0.0000000000000000000, -2.241974992108413100 ) ) ;
#89 = LENGTH_MEASURE_WITH_UNIT ( LENGTH_MEASURE( 0.02539999999999999900 ), #105 );
#90 = EDGE_LOOP ( 'NONE', ( #173 ) ) ;
#91 = CARTESIAN_POINT ( 'NONE',  ( 0.0000000000000000000, 2.165000000000000000, -1.250000000000000000 ) ) ;
#92 = AXIS2_PLACEMENT_3D ( 'NONE', #128, #202, #208 ) ;
#93 = CARTESIAN_POINT ( 'NONE',  ( 0.0000000000000000000, 0.0000000000000000000, 0.0000000000000000000 ) ) ;
#94 = DIRECTION ( 'NONE',  ( 0.0000000000000000000, 0.0000000000000000000, -1.000000000000000000 ) ) ;
#95 = ADVANCED_FACE ( 'NONE', ( #5, #249 ), #210, .T. ) ;
#96 = AXIS2_PLACEMENT_3D ( 'NONE', #224, #8, #211 ) ;
#97 = PERSON_AND_ORGANIZATION_ROLE ( 'creator' ) ;
#98 = CARTESIAN_POINT ( 'NONE',  ( 0.0000000000000000000, 0.0000000000000000000, -1.569426078613846500 ) ) ;
#99 = MECHANICAL_CONTEXT ( 'NONE', #70, 'mechanical' ) ;
#100 = DIRECTION ( 'NONE',  ( 1.000000000000000000, 0.0000000000000000000, 0.0000000000000000000 ) ) ;
#101 = ORIENTED_EDGE ( 'NONE', *, *, #267, .T. ) ;
#102 = PERSON_AND_ORGANIZATION ( #295, #319 ) ;
#103 = VERTEX_POINT ( 'NONE', #305 ) ;
#104 = EDGE_CURVE ( 'NONE', #182, #182, #281, .T. ) ;
#105 =( LENGTH_UNIT ( ) NAMED_UNIT ( * ) SI_UNIT ( $, .METRE. ) );
#106 = EDGE_LOOP ( 'NONE', ( #22 ) ) ;
#107 = ADVANCED_FACE ( 'NONE', ( #331, #21 ), #240, .F. ) ;
#108 = CARTESIAN_POINT ( 'NONE',  ( 0.0000000000000000000, 0.0000000000000000000, -1.120000000000000100 ) ) ;
#109 = CIRCLE ( 'NONE', #96, 6.200000000000000200 ) ;
#110 = CARTESIAN_POINT ( 'NONE',  ( 0.0000000000000000000, 0.0000000000000000000, -2.241974992108413100 ) ) ;
#111 = AXIS2_PLACEMENT_3D ( 'NONE', #250, #94, #60 ) ;
#112 = CARTESIAN_POINT ( 'NONE',  ( 0.0000000000000000000, 1.770999999999999700, 0.0000000000000000000 ) ) ;
#113 = ADVANCED_FACE ( 'NONE', ( #151, #59 ), #176, .T. ) ;
#114 = AXIS2_PLACEMENT_3D ( 'NONE', #277, #17, #262 ) ;
#115 = SHAPE_DEFINITION_REPRESENTATION ( #50, #268 ) ;
#116 = DATE_AND_TIME ( #279, #2 ) ;
#117 = DIRECTION ( 'NONE',  ( 0.0000000000000000000, 0.0000000000000000000, -1.000000000000000000 ) ) ;
#118 = DIRECTION ( 'NONE',  ( 1.000000000000000000, 0.0000000000000000000, 0.0000000000000000000 ) ) ;
#119 = DIRECTION ( 'NONE',  ( 0.0000000000000000000, 0.0000000000000000000, -1.000000000000000000 ) ) ;
#120 = CIRCLE ( 'NONE', #242, 1.770999999999999700 ) ;
#121 = DIRECTION ( 'NONE',  ( 0.0000000000000000000, 0.0000000000000000000, -1.000000000000000000 ) ) ;
#122 = DIRECTION ( 'NONE',  ( -0.0000000000000000000, -0.0000000000000000000, 1.000000000000000000 ) ) ;
#123 = DIRECTION ( 'NONE',  ( 1.000000000000000000, 0.0000000000000000000, 0.0000000000000000000 ) ) ;
#124 = ADVANCED_FACE ( 'NONE', ( #74, #293 ), #130, .F. ) ;
#125 = EDGE_LOOP ( 'NONE', ( #233 ) ) ;
#126 = ORIENTED_EDGE ( 'NONE', *, *, #315, .T. ) ;
#127 = APPROVAL_PERSON_ORGANIZATION ( #102, #41, #164 ) ;
#128 = CARTESIAN_POINT ( 'NONE',  ( 0.0000000000000000000, 0.0000000000000000000, 0.0000000000000000000 ) ) ;
#129 = CC_DESIGN_PERSON_AND_ORGANIZATION_ASSIGNMENT ( #179, #64, ( #137 ) ) ;
#130 = CYLINDRICAL_SURFACE ( 'NONE', #184, 5.074000000000000700 ) ;
#131 = CIRCLE ( 'NONE', #254, 6.200000000000000200 ) ;
#132 = AXIS2_PLACEMENT_3D ( 'NONE', #177, #142, #248 ) ;
#133 = CARTESIAN_POINT ( 'NONE',  ( -2.294999999999999900, 0.0000000000000000000, -1.250000000000000000 ) ) ;
#134 = EDGE_CURVE ( 'NONE', #29, #29, #53, .T. ) ;
#135 = PERSON_AND_ORGANIZATION ( #295, #319 ) ;
#136 = AXIS2_PLACEMENT_3D ( 'NONE', #91, #121, #219 ) ;
#137 = PRODUCT ( '581207658', '581207658', '', ( #99 ) ) ;
#138 = FACE_BOUND ( 'NONE', #12, .T. ) ;
#139 = CIRCLE ( 'NONE', #231, 5.074000000000000700 ) ;
#140 = CARTESIAN_POINT ( 'NONE',  ( -2.165000000000000000, 0.0000000000000000000, -1.120000000000000100 ) ) ;
#141 = AXIS2_PLACEMENT_3D ( 'NONE', #253, #329, #72 ) ;
#142 = DIRECTION ( 'NONE',  ( 0.0000000000000000000, 0.0000000000000000000, -1.000000000000000000 ) ) ;
#143 = DESIGN_CONTEXT ( 'detailed design', #43, 'design' ) ;
#144 = ADVANCED_FACE ( 'NONE', ( #220, #39 ), #303, .F. ) ;
#145 = DIRECTION ( 'NONE',  ( -0.0000000000000000000, -0.0000000000000000000, 1.000000000000000000 ) ) ;
#146 = EDGE_LOOP ( 'NONE', ( #32 ) ) ;
#147 = ORIENTED_EDGE ( 'NONE', *, *, #82, .F. ) ;
#148 = APPROVAL_DATE_TIME ( #116, #161 ) ;
#149 = ADVANCED_FACE ( 'NONE', ( #243, #178 ), #238, .F. ) ;
#150 = PERSON_AND_ORGANIZATION_ROLE ( 'creator' ) ;
#151 = FACE_OUTER_BOUND ( 'NONE', #85, .T. ) ;
#152 = FACE_OUTER_BOUND ( 'NONE', #90, .T. ) ;
#153 = FACE_OUTER_BOUND ( 'NONE', #68, .T. ) ;
#154 = EDGE_LOOP ( 'NONE', ( #192 ) ) ;
#155 = SECURITY_CLASSIFICATION_LEVEL ( 'unclassified' ) ;
#156 = EDGE_CURVE ( 'NONE', #185, #185, #257, .T. ) ;
#157 = DIRECTION ( 'NONE',  ( 1.000000000000000000, 0.0000000000000000000, 0.0000000000000000000 ) ) ;
#158 = APPROVAL ( #14, 'UNSPECIFIED' ) ;
#159 = ORIENTED_EDGE ( 'NONE', *, *, #170, .F. ) ;
#160 = DIRECTION ( 'NONE',  ( 1.000000000000000000, 0.0000000000000000000, 0.0000000000000000000 ) ) ;
#161 = APPROVAL ( #9, 'UNSPECIFIED' ) ;
#162 = ORIENTED_EDGE ( 'NONE', *, *, #156, .F. ) ;
#163 = PERSON_AND_ORGANIZATION ( #295, #319 ) ;
#164 = APPROVAL_ROLE ( '' ) ;
#165 = VERTEX_POINT ( 'NONE', #140 ) ;
#166 = ORIENTED_EDGE ( 'NONE', *, *, #134, .T. ) ;
#167 = DIRECTION ( 'NONE',  ( -1.000000000000000000, 0.0000000000000000000, 0.0000000000000000000 ) ) ;
#168 = ADVANCED_FACE ( 'NONE', ( #138, #264 ), #228, .F. ) ;
#169 = DATE_TIME_ROLE ( 'classification_date' ) ;
#170 = EDGE_CURVE ( 'NONE', #103, #103, #120, .T. ) ;
#172 = EDGE_LOOP ( 'NONE', ( #147 ) ) ;
#171 = PERSON_AND_ORGANIZATION_ROLE ( 'classification_officer' ) ;
#173 = ORIENTED_EDGE ( 'NONE', *, *, #304, .T. ) ;
#174 = CIRCLE ( 'NONE', #79, 2.165000000000000000 ) ;
#175 = CARTESIAN_POINT ( 'NONE',  ( 5.074000000000000700, 0.0000000000000000000, -2.370000000000000100 ) ) ;
#176 = CYLINDRICAL_SURFACE ( 'NONE', #23, 2.165000000000000000 ) ;
#177 = CARTESIAN_POINT ( 'NONE',  ( 0.0000000000000000000, 0.0000000000000000000, -1.250000000000000000 ) ) ;
#178 = FACE_OUTER_BOUND ( 'NONE', #18, .T. ) ;
#179 = PERSON_AND_ORGANIZATION ( #295, #319 ) ;
#180 = CIRCLE ( 'NONE', #3, 2.165000000000000000 ) ;
#181 = AXIS2_PLACEMENT_3D ( 'NONE', #291, #260, #57 ) ;
#182 = VERTEX_POINT ( 'NONE', #199 ) ;
#183 = PRODUCT_RELATED_PRODUCT_CATEGORY ( 'detail', '', ( #137 ) ) ;
#184 = AXIS2_PLACEMENT_3D ( 'NONE', #326, #122, #285 ) ;
#185 = VERTEX_POINT ( 'NONE', #175 ) ;
#186 = PERSON_AND_ORGANIZATION ( #295, #319 ) ;
#187 = EDGE_CURVE ( 'NONE', #11, #11, #139, .T. ) ;
#188 = DIRECTION ( 'NONE',  ( -1.000000000000000000, 0.0000000000000000000, 0.0000000000000000000 ) ) ;
#189 = DIRECTION ( 'NONE',  ( -0.0000000000000000000, -0.0000000000000000000, 1.000000000000000000 ) ) ;
#190 = FACE_OUTER_BOUND ( 'NONE', #49, .T. ) ;
#191 = LOCAL_TIME ( 15, 58, 4.000000000000000000, #321 ) ;
#192 = ORIENTED_EDGE ( 'NONE', *, *, #156, .T. ) ;
#193 = PERSON_AND_ORGANIZATION ( #295, #319 ) ;
#194 = DIRECTION ( 'NONE',  ( -0.0000000000000000000, -0.0000000000000000000, 1.000000000000000000 ) ) ;
#195 = FACE_OUTER_BOUND ( 'NONE', #270, .T. ) ;
#196 = ORIENTED_EDGE ( 'NONE', *, *, #170, .T. ) ;
#197 = APPROVAL_ROLE ( '' ) ;
#198 = AXIS2_PLACEMENT_3D ( 'NONE', #110, #311, #247 ) ;
#199 = CARTESIAN_POINT ( 'NONE',  ( 1.878425736903299100, 0.0000000000000000000, -1.697451086505433500 ) ) ;
#200 = LOCAL_TIME ( 15, 58, 4.000000000000000000, #225 ) ;
#201 = CARTESIAN_POINT ( 'NONE',  ( 0.0000000000000000000, 0.0000000000000000000, -3.000000000000000400 ) ) ;
#202 = DIRECTION ( 'NONE',  ( -0.0000000000000000000, -0.0000000000000000000, 1.000000000000000000 ) ) ;
#203 = CIRCLE ( 'NONE', #198, 4.966574263096702200 ) ;
#204 = ORIENTED_EDGE ( 'NONE', *, *, #187, .T. ) ;
#205 = CARTESIAN_POINT ( 'NONE',  ( 6.200000000000000200, 0.0000000000000000000, -3.000000000000000400 ) ) ;
#206 = APPROVAL_ROLE ( '' ) ;
#207 = COORDINATED_UNIVERSAL_TIME_OFFSET ( 5, 0, .BEHIND. ) ;
#208 = DIRECTION ( 'NONE',  ( 1.000000000000000000, 0.0000000000000000000, 0.0000000000000000000 ) ) ;
#209 = CARTESIAN_POINT ( 'NONE',  ( 0.0000000000000000000, 6.200000000000000200, -3.000000000000000400 ) ) ;
#210 = TOROIDAL_SURFACE ( 'NONE', #297, 1.901000000000000000, 0.1300000000000001700 ) ;
#211 = DIRECTION ( 'NONE',  ( -1.000000000000000000, 0.0000000000000000000, 0.0000000000000000000 ) ) ;
#212 = ORIENTED_EDGE ( 'NONE', *, *, #304, .F. ) ;
#213 = DIRECTION ( 'NONE',  ( -1.000000000000000000, 0.0000000000000000000, -0.0000000000000000000 ) ) ;
#214 = APPROVAL_STATUS ( 'not_yet_approved' ) ;
#215 = VERTEX_POINT ( 'NONE', #46 ) ;
#216 = CALENDAR_DATE ( 2017, 31, 7 ) ;
#217 = CC_DESIGN_DATE_AND_TIME_ASSIGNMENT ( #328, #296, ( #30 ) ) ;
#218 = DIRECTION ( 'NONE',  ( 1.000000000000000000, 0.0000000000000000000, 0.0000000000000000000 ) ) ;
#220 = FACE_BOUND ( 'NONE', #6, .T. ) ;
#219 = DIRECTION ( 'NONE',  ( -1.000000000000000000, 0.0000000000000000000, -0.0000000000000000000 ) ) ;
#221 = CC_DESIGN_DATE_AND_TIME_ASSIGNMENT ( #13, #169, ( #58 ) ) ;
#222 = DIMENSIONAL_EXPONENTS ( 1.000000000000000000, 0.0000000000000000000, 0.0000000000000000000, 0.0000000000000000000, 0.0000000000000000000, 0.0000000000000000000, 0.0000000000000000000 ) ;
#223 = CARTESIAN_POINT ( 'NONE',  ( 2.165000000000000000, 0.0000000000000000000, 0.0000000000000000000 ) ) ;
#224 = CARTESIAN_POINT ( 'NONE',  ( 0.0000000000000000000, 0.0000000000000000000, -1.349999999999999000 ) ) ;
#225 = COORDINATED_UNIVERSAL_TIME_OFFSET ( 5, 0, .BEHIND. ) ;
#226 = CARTESIAN_POINT ( 'NONE',  ( 0.0000000000000000000, 0.0000000000000000000, 0.0000000000000000000 ) ) ;
#227 = ADVANCED_FACE ( 'NONE', ( #302, #323 ), #235, .F. ) ;
#228 = PLANE ( 'NONE',  #136 ) ;
#229 = AXIS2_PLACEMENT_3D ( 'NONE', #71, #290, #280 ) ;
#230 = VERTEX_POINT ( 'NONE', #205 ) ;
#231 = AXIS2_PLACEMENT_3D ( 'NONE', #37, #25, #218 ) ;
#232 = EDGE_LOOP ( 'NONE', ( #162 ) ) ;
#233 = ORIENTED_EDGE ( 'NONE', *, *, #51, .F. ) ;
#235 = CONICAL_SURFACE ( 'NONE', #229, 1.878425736903299100, 1.396263401595463400 ) ;
#234 = PERSON_AND_ORGANIZATION_ROLE ( 'design_supplier' ) ;
#236 = AXIS2_PLACEMENT_3D ( 'NONE', #87, #145, #83 ) ;
#237 = DIRECTION ( 'NONE',  ( -0.0000000000000000000, -0.0000000000000000000, 1.000000000000000000 ) ) ;
#238 = TOROIDAL_SURFACE ( 'NONE', #141, 4.944000000000000800, 0.1299999999999999500 ) ;
#239 = CARTESIAN_POINT ( 'NONE',  ( 0.0000000000000000000, 0.0000000000000000000, 0.0000000000000000000 ) ) ;
#240 = PLANE ( 'NONE',  #318 ) ;
#241 = EDGE_LOOP ( 'NONE', ( #196 ) ) ;
#242 = AXIS2_PLACEMENT_3D ( 'NONE', #4, #287, #309 ) ;
#243 = FACE_OUTER_BOUND ( 'NONE', #232, .T. ) ;
#244 = CLOSED_SHELL ( 'NONE', ( #149, #124, #107, #299, #168, #113, #144, #298, #95, #227, #54, #84 ) ) ;
#245 = EDGE_LOOP ( 'NONE', ( #62 ) ) ;
#246 = CALENDAR_DATE ( 2017, 31, 7 ) ;
#247 = DIRECTION ( 'NONE',  ( 1.000000000000000000, 0.0000000000000000000, 0.0000000000000000000 ) ) ;
#248 = DIRECTION ( 'NONE',  ( -1.000000000000000000, 0.0000000000000000000, 0.0000000000000000000 ) ) ;
#250 = CARTESIAN_POINT ( 'NONE',  ( 0.0000000000000000000, 0.0000000000000000000, -1.120000000000000100 ) ) ;
#249 = FACE_OUTER_BOUND ( 'NONE', #241, .T. ) ;
#251 = EDGE_LOOP ( 'NONE', ( #159 ) ) ;
#252 = AXIS2_PLACEMENT_3D ( 'NONE', #226, #66, #27 ) ;
#253 = CARTESIAN_POINT ( 'NONE',  ( 0.0000000000000000000, 0.0000000000000000000, -2.370000000000000100 ) ) ;
#254 = AXIS2_PLACEMENT_3D ( 'NONE', #201, #194, #55 ) ;
#255 = LOCAL_TIME ( 15, 58, 4.000000000000000000, #308 ) ;
#256 = CARTESIAN_POINT ( 'NONE',  ( 5.074000000000000700, 0.0000000000000000000, -3.000000000000000400 ) ) ;
#257 = CIRCLE ( 'NONE', #324, 5.074000000000000700 ) ;
#258 = CARTESIAN_POINT ( 'NONE',  ( -6.099999999999999600, 0.0000000000000000000, -1.250000000000000000 ) ) ;
#259 = UNCERTAINTY_MEASURE_WITH_UNIT (LENGTH_MEASURE( 1.000000000000000100E-005 ), #78, 'distance_accuracy_value', 'NONE');
#260 = DIRECTION ( 'NONE',  ( -0.0000000000000000000, -0.0000000000000000000, 1.000000000000000000 ) ) ;
#261 = PERSON_AND_ORGANIZATION ( #295, #319 ) ;
#262 = DIRECTION ( 'NONE',  ( 1.000000000000000000, 0.0000000000000000000, 0.0000000000000000000 ) ) ;
#263 = MANIFOLD_SOLID_BREP ( 'Fillet1', #244 ) ;
#264 = FACE_OUTER_BOUND ( 'NONE', #28, .T. ) ;
#265 = CC_DESIGN_APPROVAL ( #158, ( #58 ) ) ;
#266 = APPLICATION_PROTOCOL_DEFINITION ( 'international standard', 'config_control_design', 1994, #43 ) ;
#267 = EDGE_CURVE ( 'NONE', #278, #278, #286, .T. ) ;
#268 = ADVANCED_BREP_SHAPE_REPRESENTATION ( '581207658', ( #263, #114 ), #313 ) ;
#269 = CARTESIAN_POINT ( 'NONE',  ( 0.0000000000000000000, 0.0000000000000000000, -2.370000000000000100 ) ) ;
#270 = EDGE_LOOP ( 'NONE', ( #301 ) ) ;
#271 = APPROVAL_DATE_TIME ( #294, #41 ) ;
#272 = DIRECTION ( 'NONE',  ( -0.0000000000000000000, -0.0000000000000000000, 1.000000000000000000 ) ) ;
#273 = VERTEX_POINT ( 'NONE', #300 ) ;
#274 = EDGE_LOOP ( 'NONE', ( #126 ) ) ;
#275 = ORIENTED_EDGE ( 'NONE', *, *, #104, .T. ) ;
#276 = FACE_OUTER_BOUND ( 'NONE', #251, .T. ) ;
#277 = CARTESIAN_POINT ( 'NONE',  ( 0.0000000000000000000, 0.0000000000000000000, 0.0000000000000000000 ) ) ;
#278 = VERTEX_POINT ( 'NONE', #258 ) ;
#279 = CALENDAR_DATE ( 2017, 31, 7 ) ;
#280 = DIRECTION ( 'NONE',  ( -1.000000000000000000, 0.0000000000000000000, 0.0000000000000000000 ) ) ;
#281 = CIRCLE ( 'NONE', #181, 1.878425736903299100 ) ;
#282 = ORIENTED_EDGE ( 'NONE', *, *, #134, .F. ) ;
#283 = CARTESIAN_POINT ( 'NONE',  ( 0.0000000000000000000, 0.0000000000000000000, 0.0000000000000000000 ) ) ;
#284 = CC_DESIGN_PERSON_AND_ORGANIZATION_ASSIGNMENT ( #69, #171, ( #58 ) ) ;
#285 = DIRECTION ( 'NONE',  ( 1.000000000000000000, 0.0000000000000000000, 0.0000000000000000000 ) ) ;
#286 = CIRCLE ( 'NONE', #236, 6.099999999999999600 ) ;
#287 = DIRECTION ( 'NONE',  ( -0.0000000000000000000, -0.0000000000000000000, 1.000000000000000000 ) ) ;
#288 = EDGE_LOOP ( 'NONE', ( #67 ) ) ;
#289 = COORDINATED_UNIVERSAL_TIME_OFFSET ( 5, 0, .BEHIND. ) ;
#290 = DIRECTION ( 'NONE',  ( 0.0000000000000000000, 0.0000000000000000000, -1.000000000000000000 ) ) ;
#291 = CARTESIAN_POINT ( 'NONE',  ( 0.0000000000000000000, 0.0000000000000000000, -1.697451086505433500 ) ) ;
#292 = CC_DESIGN_SECURITY_CLASSIFICATION ( #58, ( #325 ) ) ;
#293 = FACE_OUTER_BOUND ( 'NONE', #154, .T. ) ;
#294 = DATE_AND_TIME ( #246, #200 ) ;
#295 = PERSON ( 'UNSPECIFIED', 'UNSPECIFIED', 'UNSPECIFIED', ('UNSPECIFIED'), ('UNSPECIFIED'), ('UNSPECIFIED') ) ;
#296 = DATE_TIME_ROLE ( 'creation_date' ) ;
#297 = AXIS2_PLACEMENT_3D ( 'NONE', #98, #77, #157 ) ;
#298 = ADVANCED_FACE ( 'NONE', ( #276, #153 ), #44, .F. ) ;
#299 = ADVANCED_FACE ( 'NONE', ( #195, #152 ), #86, .T. ) ;
#300 = CARTESIAN_POINT ( 'NONE',  ( 1.770999999999999700, 0.0000000000000000000, 0.0000000000000000000 ) ) ;
#301 = ORIENTED_EDGE ( 'NONE', *, *, #51, .T. ) ;
#302 = FACE_OUTER_BOUND ( 'NONE', #172, .T. ) ;
#303 = PLANE ( 'NONE',  #20 ) ;
#304 = EDGE_CURVE ( 'NONE', #230, #230, #131, .T. ) ;
#305 = CARTESIAN_POINT ( 'NONE',  ( 1.770999999999999700, 0.0000000000000000000, -1.569426078613846500 ) ) ;
#306 = CIRCLE ( 'NONE', #92, 1.770999999999999700 ) ;
#307 = ORIENTED_EDGE ( 'NONE', *, *, #31, .T. ) ;
#308 = COORDINATED_UNIVERSAL_TIME_OFFSET ( 5, 0, .BEHIND. ) ;
#309 = DIRECTION ( 'NONE',  ( 1.000000000000000000, 0.0000000000000000000, 0.0000000000000000000 ) ) ;
#310 = FACE_OUTER_BOUND ( 'NONE', #15, .T. ) ;
#311 = DIRECTION ( 'NONE',  ( -0.0000000000000000000, -0.0000000000000000000, 1.000000000000000000 ) ) ;
#312 = CC_DESIGN_APPROVAL ( #41, ( #30 ) ) ;
#313 =( GEOMETRIC_REPRESENTATION_CONTEXT ( 3 ) GLOBAL_UNCERTAINTY_ASSIGNED_CONTEXT ( ( #259 ) ) GLOBAL_UNIT_ASSIGNED_CONTEXT ( ( #78, #330, #26 ) ) REPRESENTATION_CONTEXT ( 'NONE', 'WORKASPACE' ) );
#314 = CALENDAR_DATE ( 2017, 31, 7 ) ;
#315 = EDGE_CURVE ( 'NONE', #24, #24, #174, .T. ) ;
#316 = FACE_BOUND ( 'NONE', #245, .T. ) ;
#317 = ORIENTED_EDGE ( 'NONE', *, *, #82, .T. ) ;
#318 = AXIS2_PLACEMENT_3D ( 'NONE', #209, #35, #63 ) ;
#319 = ORGANIZATION ( 'UNSPECIFIED', 'UNSPECIFIED', '' ) ;
#320 = EDGE_LOOP ( 'NONE', ( #204 ) ) ;
#321 = COORDINATED_UNIVERSAL_TIME_OFFSET ( 5, 0, .BEHIND. ) ;
#322 = AXIS2_PLACEMENT_3D ( 'NONE', #52, #117, #167 ) ;
#323 = FACE_BOUND ( 'NONE', #65, .T. ) ;
#324 = AXIS2_PLACEMENT_3D ( 'NONE', #269, #16, #118 ) ;
#325 = PRODUCT_DEFINITION_FORMATION_WITH_SPECIFIED_SOURCE ( 'ANY', '', #137, .NOT_KNOWN. ) ;
#326 = CARTESIAN_POINT ( 'NONE',  ( 0.0000000000000000000, 0.0000000000000000000, 0.0000000000000000000 ) ) ;
#327 = CALENDAR_DATE ( 2017, 31, 7 ) ;
#328 = DATE_AND_TIME ( #314, #255 ) ;
#329 = DIRECTION ( 'NONE',  ( -0.0000000000000000000, -0.0000000000000000000, 1.000000000000000000 ) ) ;
#330 =( NAMED_UNIT ( * ) PLANE_ANGLE_UNIT ( ) SI_UNIT ( $, .RADIAN. ) );
#331 = FACE_OUTER_BOUND ( 'NONE', #7, .T. ) ;
#332 = CC_DESIGN_PERSON_AND_ORGANIZATION_ASSIGNMENT ( #193, #150, ( #325 ) ) ;
ENDSEC;
END-ISO-10303-21;
