ISO-10303-21;
HEADER;
FILE_DESCRIPTION (( 'STEP AP203' ),
    '1' );
FILE_NAME ('581207624.STEP',
    '2017-07-31T19:24:08',
    ( '' ),
    ( '' ),
    'SwSTEP 2.0',
    'SolidWorks 2017',
    '' );
FILE_SCHEMA (( 'CONFIG_CONTROL_DESIGN' ));
ENDSEC;

DATA;
#1 = LOCAL_TIME ( 15, 24, 8.000000000000000000, #184 ) ;
#2 = AXIS2_PLACEMENT_3D ( 'NONE', #248, #7, #66 ) ;
#3 = ORIENTED_EDGE ( 'NONE', *, *, #61, .T. ) ;
#4 = FACE_OUTER_BOUND ( 'NONE', #313, .T. ) ;
#5 = MECHANICAL_CONTEXT ( 'NONE', #208, 'mechanical' ) ;
#6 = DIRECTION ( 'NONE',  ( -1.000000000000000000, 0.0000000000000000000, 0.0000000000000000000 ) ) ;
#7 = DIRECTION ( 'NONE',  ( 0.0000000000000000000, 0.0000000000000000000, -1.000000000000000000 ) ) ;
#8 = CARTESIAN_POINT ( 'NONE',  ( 0.0000000000000000000, 0.0000000000000000000, 0.0000000000000000000 ) ) ;
#9 = ORIENTED_EDGE ( 'NONE', *, *, #211, .F. ) ;
#10 = VERTEX_POINT ( 'NONE', #17 ) ;
#11 = DIRECTION ( 'NONE',  ( -0.0000000000000000000, -0.0000000000000000000, 1.000000000000000000 ) ) ;
#12 = CARTESIAN_POINT ( 'NONE',  ( 1.011999999999999600, 0.0000000000000000000, 0.0000000000000000000 ) ) ;
#13 = CARTESIAN_POINT ( 'NONE',  ( 1.240000000000000000, 0.0000000000000000000, 0.0000000000000000000 ) ) ;
#14 = AXIS2_PLACEMENT_3D ( 'NONE', #195, #29, #179 ) ;
#15 = DIRECTION ( 'NONE',  ( -0.0000000000000000000, -0.0000000000000000000, 1.000000000000000000 ) ) ;
#16 = ORIENTED_EDGE ( 'NONE', *, *, #189, .F. ) ;
#17 = CARTESIAN_POINT ( 'NONE',  ( 4.022000000000000200, 0.0000000000000000000, -3.000000000000000400 ) ) ;
#18 = ORIENTED_EDGE ( 'NONE', *, *, #189, .T. ) ;
#19 = APPROVAL_ROLE ( '' ) ;
#20 = APPROVAL_ROLE ( '' ) ;
#21 = CIRCLE ( 'NONE', #294, 1.369999999999999900 ) ;
#22 = ORIENTED_EDGE ( 'NONE', *, *, #242, .T. ) ;
#23 = CC_DESIGN_APPROVAL ( #304, ( #152 ) ) ;
#24 = DIMENSIONAL_EXPONENTS ( 1.000000000000000000, 0.0000000000000000000, 0.0000000000000000000, 0.0000000000000000000, 0.0000000000000000000, 0.0000000000000000000, 0.0000000000000000000 ) ;
#25 = ORIENTED_EDGE ( 'NONE', *, *, #221, .T. ) ;
#26 = AXIS2_PLACEMENT_3D ( 'NONE', #316, #112, #157 ) ;
#27 = CARTESIAN_POINT ( 'NONE',  ( -4.919999999999999900, 0.0000000000000000000, -1.350000000000000500 ) ) ;
#28 = AXIS2_PLACEMENT_3D ( 'NONE', #98, #317, #58 ) ;
#29 = DIRECTION ( 'NONE',  ( 0.0000000000000000000, 0.0000000000000000000, -1.000000000000000000 ) ) ;
#30 = EDGE_LOOP ( 'NONE', ( #55 ) ) ;
#31 = ORIENTED_EDGE ( 'NONE', *, *, #61, .F. ) ;
#32 = DIRECTION ( 'NONE',  ( -0.0000000000000000000, -0.0000000000000000000, 1.000000000000000000 ) ) ;
#33 = CARTESIAN_POINT ( 'NONE',  ( -1.369999999999999900, 0.0000000000000000000, -1.250000000000000000 ) ) ;
#34 = CC_DESIGN_DATE_AND_TIME_ASSIGNMENT ( #262, #301, ( #57 ) ) ;
#35 = CIRCLE ( 'NONE', #140, 1.011999999999999600 ) ;
#36 = LOCAL_TIME ( 15, 24, 8.000000000000000000, #106 ) ;
#37 = DIRECTION ( 'NONE',  ( 1.000000000000000000, 0.0000000000000000000, 0.0000000000000000000 ) ) ;
#38 = CARTESIAN_POINT ( 'NONE',  ( 1.012000000000000000, 0.0000000000000000000, -1.629480880273199900 ) ) ;
#39 = ADVANCED_FACE ( 'NONE', ( #91, #256 ), #202, .F. ) ;
#40 = VERTEX_POINT ( 'NONE', #38 ) ;
#41 = ORIENTED_EDGE ( 'NONE', *, *, #228, .T. ) ;
#42 = CARTESIAN_POINT ( 'NONE',  ( -1.240000000000000000, 0.0000000000000000000, -1.120000000000000100 ) ) ;
#43 = DIRECTION ( 'NONE',  ( 1.000000000000000000, 0.0000000000000000000, 0.0000000000000000000 ) ) ;
#44 = FACE_OUTER_BOUND ( 'NONE', #205, .T. ) ;
#45 = APPROVAL_PERSON_ORGANIZATION ( #230, #304, #20 ) ;
#46 = CARTESIAN_POINT ( 'NONE',  ( 3.918706022208366100, 0.0000000000000000000, -2.246899030873474000 ) ) ;
#47 = CYLINDRICAL_SURFACE ( 'NONE', #281, 1.240000000000000000 ) ;
#48 = DIRECTION ( 'NONE',  ( 0.0000000000000000000, 0.0000000000000000000, 1.000000000000000000 ) ) ;
#49 = VERTEX_POINT ( 'NONE', #13 ) ;
#50 = PERSON_AND_ORGANIZATION_ROLE ( 'design_supplier' ) ;
#51 = EDGE_LOOP ( 'NONE', ( #41 ) ) ;
#52 = AXIS2_PLACEMENT_3D ( 'NONE', #68, #96, #43 ) ;
#53 = EDGE_LOOP ( 'NONE', ( #103 ) ) ;
#54 = APPLICATION_PROTOCOL_DEFINITION ( 'international standard', 'config_control_design', 1994, #213 ) ;
#55 = ORIENTED_EDGE ( 'NONE', *, *, #242, .F. ) ;
#56 = ORIENTED_EDGE ( 'NONE', *, *, #251, .T. ) ;
#57 = SECURITY_CLASSIFICATION ( '', '', #250 ) ;
#58 = DIRECTION ( 'NONE',  ( 1.000000000000000000, 0.0000000000000000000, 0.0000000000000000000 ) ) ;
#59 = CIRCLE ( 'NONE', #196, 4.022000000000000200 ) ;
#60 = DIRECTION ( 'NONE',  ( 1.000000000000000000, 0.0000000000000000000, 0.0000000000000000000 ) ) ;
#61 = EDGE_CURVE ( 'NONE', #10, #10, #59, .T. ) ;
#62 = PLANE ( 'NONE',  #74 ) ;
#63 = CIRCLE ( 'NONE', #246, 1.240000000000000000 ) ;
#64 = ADVANCED_FACE ( 'NONE', ( #194, #295 ), #237, .F. ) ;
#65 = CARTESIAN_POINT ( 'NONE',  ( 0.0000000000000000000, 0.0000000000000000000, -2.370000000000000100 ) ) ;
#66 = DIRECTION ( 'NONE',  ( -1.000000000000000000, 0.0000000000000000000, 0.0000000000000000000 ) ) ;
#67 = AXIS2_PLACEMENT_3D ( 'NONE', #8, #175, #224 ) ;
#68 = CARTESIAN_POINT ( 'NONE',  ( 0.0000000000000000000, 0.0000000000000000000, -2.246899030873474000 ) ) ;
#69 = PERSON_AND_ORGANIZATION_ROLE ( 'classification_officer' ) ;
#70 = ORIENTED_EDGE ( 'NONE', *, *, #257, .F. ) ;
#71 = CALENDAR_DATE ( 2017, 31, 7 ) ;
#72 = FACE_OUTER_BOUND ( 'NONE', #188, .T. ) ;
#73 = PERSON_AND_ORGANIZATION ( #81, #270 ) ;
#74 = AXIS2_PLACEMENT_3D ( 'NONE', #204, #146, #118 ) ;
#75 = LENGTH_MEASURE_WITH_UNIT ( LENGTH_MEASURE( 0.02539999999999999900 ), #279 );
#76 = CARTESIAN_POINT ( 'NONE',  ( 4.022000000000000200, 0.0000000000000000000, -2.370000000000000100 ) ) ;
#77 = ORIENTED_EDGE ( 'NONE', *, *, #95, .T. ) ;
#78 = EDGE_CURVE ( 'NONE', #162, #162, #63, .T. ) ;
#79 = TOROIDAL_SURFACE ( 'NONE', #87, 1.137000000000000000, 0.1249999999999999200 ) ;
#80 = ADVANCED_FACE ( 'NONE', ( #325, #266 ), #62, .F. ) ;
#81 = PERSON ( 'UNSPECIFIED', 'UNSPECIFIED', 'UNSPECIFIED', ('UNSPECIFIED'), ('UNSPECIFIED'), ('UNSPECIFIED') ) ;
#82 = ADVANCED_FACE ( 'NONE', ( #197, #44 ), #109, .F. ) ;
#83 = CC_DESIGN_SECURITY_CLASSIFICATION ( #57, ( #152 ) ) ;
#84 = CARTESIAN_POINT ( 'NONE',  ( 0.0000000000000000000, 0.0000000000000000000, -1.752581849399725800 ) ) ;
#85 = ADVANCED_FACE ( 'NONE', ( #258, #190 ), #181, .F. ) ;
#86 = DIRECTION ( 'NONE',  ( 1.000000000000000000, 0.0000000000000000000, 0.0000000000000000000 ) ) ;
#87 = AXIS2_PLACEMENT_3D ( 'NONE', #203, #297, #278 ) ;
#88 = CARTESIAN_POINT ( 'NONE',  ( 0.0000000000000000000, 0.0000000000000000000, 0.0000000000000000000 ) ) ;
#89 = ADVANCED_FACE ( 'NONE', ( #105, #271 ), #79, .T. ) ;
#90 = CIRCLE ( 'NONE', #310, 4.819999999999999400 ) ;
#91 = FACE_OUTER_BOUND ( 'NONE', #241, .T. ) ;
#92 = CARTESIAN_POINT ( 'NONE',  ( 0.0000000000000000000, 0.0000000000000000000, -1.629480880273199900 ) ) ;
#93 = MANIFOLD_SOLID_BREP ( 'Fillet1', #121 ) ;
#94 = CARTESIAN_POINT ( 'NONE',  ( 0.0000000000000000000, 0.0000000000000000000, -3.000000000000000400 ) ) ;
#95 = EDGE_CURVE ( 'NONE', #321, #321, #35, .T. ) ;
#96 = DIRECTION ( 'NONE',  ( -0.0000000000000000000, -0.0000000000000000000, 1.000000000000000000 ) ) ;
#97 = APPROVAL_PERSON_ORGANIZATION ( #244, #283, #19 ) ;
#98 = CARTESIAN_POINT ( 'NONE',  ( 0.0000000000000000000, 0.0000000000000000000, -1.752581849399725800 ) ) ;
#99 = CARTESIAN_POINT ( 'NONE',  ( 0.0000000000000000000, 0.0000000000000000000, 0.0000000000000000000 ) ) ;
#100 = CC_DESIGN_APPROVAL ( #285, ( #137 ) ) ;
#101 = CYLINDRICAL_SURFACE ( 'NONE', #26, 4.919999999999999900 ) ;
#102 = APPROVAL_DATE_TIME ( #319, #283 ) ;
#103 = ORIENTED_EDGE ( 'NONE', *, *, #78, .T. ) ;
#104 = CARTESIAN_POINT ( 'NONE',  ( 0.0000000000000000000, 0.0000000000000000000, 0.0000000000000000000 ) ) ;
#105 = FACE_OUTER_BOUND ( 'NONE', #300, .T. ) ;
#106 = COORDINATED_UNIVERSAL_TIME_OFFSET ( 5, 0, .BEHIND. ) ;
#107 = AXIS2_PLACEMENT_3D ( 'NONE', #124, #165, #86 ) ;
#108 = EDGE_LOOP ( 'NONE', ( #276 ) ) ;
#109 = CYLINDRICAL_SURFACE ( 'NONE', #67, 4.022000000000000200 ) ;
#110 = PRODUCT_DEFINITION_SHAPE ( 'NONE', 'NONE',  #137 ) ;
#111 = ADVANCED_FACE ( 'NONE', ( #131, #72 ), #214, .F. ) ;
#112 = DIRECTION ( 'NONE',  ( -0.0000000000000000000, -0.0000000000000000000, 1.000000000000000000 ) ) ;
#113 = EDGE_LOOP ( 'NONE', ( #25 ) ) ;
#114 = ADVANCED_FACE ( 'NONE', ( #116, #277 ), #47, .T. ) ;
#115 = UNCERTAINTY_MEASURE_WITH_UNIT (LENGTH_MEASURE( 1.000000000000000100E-005 ), #210, 'distance_accuracy_value', 'NONE');
#116 = FACE_OUTER_BOUND ( 'NONE', #53, .T. ) ;
#117 = CARTESIAN_POINT ( 'NONE',  ( 0.0000000000000000000, 0.0000000000000000000, -1.250000000000000000 ) ) ;
#118 = DIRECTION ( 'NONE',  ( 1.000000000000000000, 0.0000000000000000000, 0.0000000000000000000 ) ) ;
#119 = CC_DESIGN_PERSON_AND_ORGANIZATION_ASSIGNMENT ( #73, #50, ( #152 ) ) ;
#120 = DIRECTION ( 'NONE',  ( -0.0000000000000000000, -0.0000000000000000000, 1.000000000000000000 ) ) ;
#121 = CLOSED_SHELL ( 'NONE', ( #89, #64, #305, #82, #80, #171, #240, #114, #85, #39, #314, #111 ) ) ;
#122 = EDGE_LOOP ( 'NONE', ( #16 ) ) ;
#123 = CARTESIAN_POINT ( 'NONE',  ( 0.0000000000000000000, 0.0000000000000000000, -1.120000000000000100 ) ) ;
#124 = CARTESIAN_POINT ( 'NONE',  ( 0.0000000000000000000, 0.0000000000000000000, -3.000000000000000900 ) ) ;
#125 = DATE_TIME_ROLE ( 'creation_date' ) ;
#126 = DIRECTION ( 'NONE',  ( 1.000000000000000000, 0.0000000000000000000, 0.0000000000000000000 ) ) ;
#127 = CIRCLE ( 'NONE', #187, 4.022000000000000200 ) ;
#128 = CALENDAR_DATE ( 2017, 31, 7 ) ;
#129 = DIRECTION ( 'NONE',  ( -1.000000000000000000, 0.0000000000000000000, 0.0000000000000000000 ) ) ;
#130 = APPROVAL_STATUS ( 'not_yet_approved' ) ;
#131 = FACE_OUTER_BOUND ( 'NONE', #318, .T. ) ;
#132 = CC_DESIGN_DATE_AND_TIME_ASSIGNMENT ( #264, #125, ( #137 ) ) ;
#133 = AXIS2_PLACEMENT_3D ( 'NONE', #84, #326, #247 ) ;
#134 = ORIENTED_EDGE ( 'NONE', *, *, #274, .T. ) ;
#135 =( NAMED_UNIT ( * ) SI_UNIT ( $, .STERADIAN. ) SOLID_ANGLE_UNIT ( ) );
#136 = PERSON_AND_ORGANIZATION ( #81, #270 ) ;
#137 = PRODUCT_DEFINITION ( 'UNKNOWN', '', #152, #292 ) ;
#138 = CALENDAR_DATE ( 2017, 31, 7 ) ;
#139 = DIRECTION ( 'NONE',  ( -0.0000000000000000000, -0.0000000000000000000, 1.000000000000000000 ) ) ;
#140 = AXIS2_PLACEMENT_3D ( 'NONE', #88, #267, #272 ) ;
#141 = DIRECTION ( 'NONE',  ( 1.000000000000000000, 0.0000000000000000000, 0.0000000000000000000 ) ) ;
#142 = DIRECTION ( 'NONE',  ( -0.0000000000000000000, -0.0000000000000000000, 1.000000000000000000 ) ) ;
#143 = ORIENTED_EDGE ( 'NONE', *, *, #228, .F. ) ;
#144 = FACE_BOUND ( 'NONE', #113, .T. ) ;
#145 = APPROVAL_DATE_TIME ( #280, #285 ) ;
#146 = DIRECTION ( 'NONE',  ( 0.0000000000000000000, -0.0000000000000000000, 1.000000000000000000 ) ) ;
#147 = CARTESIAN_POINT ( 'NONE',  ( 0.0000000000000000000, 0.0000000000000000000, 0.0000000000000000000 ) ) ;
#148 = CARTESIAN_POINT ( 'NONE',  ( 0.0000000000000000000, 1.011999999999999600, 0.0000000000000000000 ) ) ;
#149 = DATE_AND_TIME ( #299, #1 ) ;
#150 = EDGE_LOOP ( 'NONE', ( #56 ) ) ;
#151 = DIRECTION ( 'NONE',  ( 0.0000000000000000000, 0.0000000000000000000, -1.000000000000000000 ) ) ;
#152 = PRODUCT_DEFINITION_FORMATION_WITH_SPECIFIED_SOURCE ( 'ANY', '', #223, .NOT_KNOWN. ) ;
#153 = DIRECTION ( 'NONE',  ( -1.000000000000000000, 0.0000000000000000000, -0.0000000000000000000 ) ) ;
#154 = ORIENTED_EDGE ( 'NONE', *, *, #251, .F. ) ;
#155 = CONICAL_SURFACE ( 'NONE', #201, 4.819999999999999400, 0.7853981633974482800 ) ;
#156 = VERTEX_POINT ( 'NONE', #232 ) ;
#157 = DIRECTION ( 'NONE',  ( 1.000000000000000000, 0.0000000000000000000, 0.0000000000000000000 ) ) ;
#158 = PERSON_AND_ORGANIZATION ( #81, #270 ) ;
#159 = PERSON_AND_ORGANIZATION_ROLE ( 'creator' ) ;
#160 =( NAMED_UNIT ( * ) PLANE_ANGLE_UNIT ( ) SI_UNIT ( $, .RADIAN. ) );
#161 = SHAPE_DEFINITION_REPRESENTATION ( #110, #215 ) ;
#162 = VERTEX_POINT ( 'NONE', #42 ) ;
#163 = CC_DESIGN_PERSON_AND_ORGANIZATION_ASSIGNMENT ( #158, #180, ( #223 ) ) ;
#164 = APPROVAL_DATE_TIME ( #149, #304 ) ;
#165 = DIRECTION ( 'NONE',  ( -0.0000000000000000000, -0.0000000000000000000, 1.000000000000000000 ) ) ;
#166 = DIRECTION ( 'NONE',  ( 1.000000000000000000, 0.0000000000000000000, 0.0000000000000000000 ) ) ;
#167 = PRODUCT_RELATED_PRODUCT_CATEGORY ( 'detail', '', ( #223 ) ) ;
#168 = CIRCLE ( 'NONE', #332, 1.240000000000000000 ) ;
#169 = LOCAL_TIME ( 15, 24, 8.000000000000000000, #259 ) ;
#170 = ORIENTED_EDGE ( 'NONE', *, *, #211, .T. ) ;
#171 = ADVANCED_FACE ( 'NONE', ( #233, #308 ), #101, .T. ) ;
#172 = CARTESIAN_POINT ( 'NONE',  ( 0.0000000000000000000, 0.0000000000000000000, 0.0000000000000000000 ) ) ;
#173 = FACE_OUTER_BOUND ( 'NONE', #185, .T. ) ;
#174 = PERSON_AND_ORGANIZATION ( #81, #270 ) ;
#175 = DIRECTION ( 'NONE',  ( -0.0000000000000000000, -0.0000000000000000000, 1.000000000000000000 ) ) ;
#176 = CIRCLE ( 'NONE', #107, 4.919999999999999900 ) ;
#177 = AXIS2_PLACEMENT_3D ( 'NONE', #172, #273, #328 ) ;
#178 = ORIENTED_EDGE ( 'NONE', *, *, #221, .F. ) ;
#179 = DIRECTION ( 'NONE',  ( -1.000000000000000000, 0.0000000000000000000, -0.0000000000000000000 ) ) ;
#180 = PERSON_AND_ORGANIZATION_ROLE ( 'design_owner' ) ;
#181 = PLANE ( 'NONE',  #200 ) ;
#182 = DIRECTION ( 'NONE',  ( 1.000000000000000000, 0.0000000000000000000, 0.0000000000000000000 ) ) ;
#183 = CIRCLE ( 'NONE', #28, 1.115293977791633500 ) ;
#184 = COORDINATED_UNIVERSAL_TIME_OFFSET ( 5, 0, .BEHIND. ) ;
#185 = EDGE_LOOP ( 'NONE', ( #170 ) ) ;
#186 = AXIS2_PLACEMENT_3D ( 'NONE', #227, #286, #129 ) ;
#187 = AXIS2_PLACEMENT_3D ( 'NONE', #291, #142, #166 ) ;
#188 = EDGE_LOOP ( 'NONE', ( #260 ) ) ;
#189 = EDGE_CURVE ( 'NONE', #254, #254, #176, .T. ) ;
#190 = FACE_OUTER_BOUND ( 'NONE', #150, .T. ) ;
#191 = VERTEX_POINT ( 'NONE', #46 ) ;
#192 = COORDINATED_UNIVERSAL_TIME_OFFSET ( 5, 0, .BEHIND. ) ;
#193 = APPROVAL_PERSON_ORGANIZATION ( #136, #285, #252 ) ;
#194 = FACE_OUTER_BOUND ( 'NONE', #243, .T. ) ;
#195 = CARTESIAN_POINT ( 'NONE',  ( 0.0000000000000000000, 1.240000000000000000, -1.250000000000000000 ) ) ;
#196 = AXIS2_PLACEMENT_3D ( 'NONE', #94, #32, #37 ) ;
#197 = FACE_OUTER_BOUND ( 'NONE', #212, .T. ) ;
#198 = CARTESIAN_POINT ( 'NONE',  ( 4.919999999999999900, 0.0000000000000000000, -3.000000000000000900 ) ) ;
#199 = DIRECTION ( 'NONE',  ( 0.0000000000000000000, 0.0000000000000000000, -1.000000000000000000 ) ) ;
#200 = AXIS2_PLACEMENT_3D ( 'NONE', #148, #151, #153 ) ;
#201 = AXIS2_PLACEMENT_3D ( 'NONE', #222, #199, #219 ) ;
#202 = CYLINDRICAL_SURFACE ( 'NONE', #177, 1.011999999999999800 ) ;
#203 = CARTESIAN_POINT ( 'NONE',  ( 0.0000000000000000000, 0.0000000000000000000, -1.629480880273199900 ) ) ;
#204 = CARTESIAN_POINT ( 'NONE',  ( 0.0000000000000000000, 4.919999999999999900, -3.000000000000000900 ) ) ;
#205 = EDGE_LOOP ( 'NONE', ( #134 ) ) ;
#206 = PERSON_AND_ORGANIZATION ( #81, #270 ) ;
#207 = APPLICATION_PROTOCOL_DEFINITION ( 'international standard', 'config_control_design', 1994, #208 ) ;
#208 = APPLICATION_CONTEXT ( 'configuration controlled 3d designs of mechanical parts and assemblies' ) ;
#209 = FACE_OUTER_BOUND ( 'NONE', #30, .T. ) ;
#210 =( CONVERSION_BASED_UNIT ( 'INCH', #75 ) LENGTH_UNIT ( ) NAMED_UNIT ( #24 ) );
#211 = EDGE_CURVE ( 'NONE', #191, #191, #287, .T. ) ;
#212 = EDGE_LOOP ( 'NONE', ( #31 ) ) ;
#213 = APPLICATION_CONTEXT ( 'configuration controlled 3d designs of mechanical parts and assemblies' ) ;
#214 = TOROIDAL_SURFACE ( 'NONE', #186, 1.369999999999999900, 0.1300000000000000000 ) ;
#215 = ADVANCED_BREP_SHAPE_REPRESENTATION ( '581207624', ( #93, #265 ), #293 ) ;
#216 = DIRECTION ( 'NONE',  ( 0.0000000000000000000, 0.0000000000000000000, -1.000000000000000000 ) ) ;
#217 = AXIS2_PLACEMENT_3D ( 'NONE', #65, #275, #141 ) ;
#218 = CARTESIAN_POINT ( 'NONE',  ( 0.0000000000000000000, 0.0000000000000000000, -1.250000000000000000 ) ) ;
#219 = DIRECTION ( 'NONE',  ( -1.000000000000000000, 0.0000000000000000000, 0.0000000000000000000 ) ) ;
#220 = EDGE_LOOP ( 'NONE', ( #249 ) ) ;
#221 = EDGE_CURVE ( 'NONE', #253, #253, #21, .T. ) ;
#222 = CARTESIAN_POINT ( 'NONE',  ( 0.0000000000000000000, 0.0000000000000000000, -1.250000000000000000 ) ) ;
#223 = PRODUCT ( '581207624', '581207624', '', ( #5 ) ) ;
#224 = DIRECTION ( 'NONE',  ( 1.000000000000000000, 0.0000000000000000000, 0.0000000000000000000 ) ) ;
#225 = CALENDAR_DATE ( 2017, 31, 7 ) ;
#226 = LOCAL_TIME ( 15, 24, 8.000000000000000000, #324 ) ;
#227 = CARTESIAN_POINT ( 'NONE',  ( 0.0000000000000000000, 0.0000000000000000000, -1.120000000000000100 ) ) ;
#228 = EDGE_CURVE ( 'NONE', #40, #40, #255, .T. ) ;
#229 = EDGE_LOOP ( 'NONE', ( #154 ) ) ;
#230 = PERSON_AND_ORGANIZATION ( #81, #270 ) ;
#231 = ORIENTED_EDGE ( 'NONE', *, *, #274, .F. ) ;
#232 = CARTESIAN_POINT ( 'NONE',  ( 1.115293977791633500, 0.0000000000000000000, -1.752581849399725800 ) ) ;
#233 = FACE_OUTER_BOUND ( 'NONE', #269, .T. ) ;
#234 = ORIENTED_EDGE ( 'NONE', *, *, #289, .T. ) ;
#235 = CC_DESIGN_APPROVAL ( #283, ( #57 ) ) ;
#236 = DIRECTION ( 'NONE',  ( 1.000000000000000000, 0.0000000000000000000, 0.0000000000000000000 ) ) ;
#237 = CONICAL_SURFACE ( 'NONE', #133, 1.115293977791633500, 1.396263401595463600 ) ;
#238 = EDGE_LOOP ( 'NONE', ( #231 ) ) ;
#239 = FACE_BOUND ( 'NONE', #108, .T. ) ;
#240 = ADVANCED_FACE ( 'NONE', ( #144, #4 ), #323, .F. ) ;
#241 = EDGE_LOOP ( 'NONE', ( #143 ) ) ;
#242 = EDGE_CURVE ( 'NONE', #284, #284, #302, .T. ) ;
#243 = EDGE_LOOP ( 'NONE', ( #9 ) ) ;
#244 = PERSON_AND_ORGANIZATION ( #81, #270 ) ;
#245 = TOROIDAL_SURFACE ( 'NONE', #217, 3.896999999999999800, 0.1250000000000000300 ) ;
#246 = AXIS2_PLACEMENT_3D ( 'NONE', #123, #15, #6 ) ;
#247 = DIRECTION ( 'NONE',  ( -1.000000000000000000, 0.0000000000000000000, 0.0000000000000000000 ) ) ;
#248 = CARTESIAN_POINT ( 'NONE',  ( 0.0000000000000000000, 0.0000000000000000000, -1.350000000000000500 ) ) ;
#249 = ORIENTED_EDGE ( 'NONE', *, *, #95, .F. ) ;
#250 = SECURITY_CLASSIFICATION_LEVEL ( 'unclassified' ) ;
#251 = EDGE_CURVE ( 'NONE', #49, #49, #168, .T. ) ;
#252 = APPROVAL_ROLE ( '' ) ;
#253 = VERTEX_POINT ( 'NONE', #33 ) ;
#254 = VERTEX_POINT ( 'NONE', #198 ) ;
#255 = CIRCLE ( 'NONE', #311, 1.012000000000000000 ) ;
#256 = FACE_OUTER_BOUND ( 'NONE', #296, .T. ) ;
#257 = EDGE_CURVE ( 'NONE', #156, #156, #183, .T. ) ;
#258 = FACE_BOUND ( 'NONE', #220, .T. ) ;
#259 = COORDINATED_UNIVERSAL_TIME_OFFSET ( 5, 0, .BEHIND. ) ;
#260 = ORIENTED_EDGE ( 'NONE', *, *, #78, .F. ) ;
#261 = PERSON_AND_ORGANIZATION_ROLE ( 'creator' ) ;
#262 = DATE_AND_TIME ( #225, #36 ) ;
#263 = DIRECTION ( 'NONE',  ( -1.000000000000000000, 0.0000000000000000000, 0.0000000000000000000 ) ) ;
#264 = DATE_AND_TIME ( #138, #309 ) ;
#265 = AXIS2_PLACEMENT_3D ( 'NONE', #147, #48, #236 ) ;
#266 = FACE_BOUND ( 'NONE', #282, .T. ) ;
#267 = DIRECTION ( 'NONE',  ( -0.0000000000000000000, -0.0000000000000000000, 1.000000000000000000 ) ) ;
#268 = DIRECTION ( 'NONE',  ( -0.0000000000000000000, -0.0000000000000000000, 1.000000000000000000 ) ) ;
#269 = EDGE_LOOP ( 'NONE', ( #22 ) ) ;
#270 = ORGANIZATION ( 'UNSPECIFIED', 'UNSPECIFIED', '' ) ;
#271 = FACE_OUTER_BOUND ( 'NONE', #51, .T. ) ;
#272 = DIRECTION ( 'NONE',  ( 1.000000000000000000, 0.0000000000000000000, 0.0000000000000000000 ) ) ;
#273 = DIRECTION ( 'NONE',  ( -0.0000000000000000000, -0.0000000000000000000, 1.000000000000000000 ) ) ;
#274 = EDGE_CURVE ( 'NONE', #288, #288, #127, .T. ) ;
#275 = DIRECTION ( 'NONE',  ( -0.0000000000000000000, -0.0000000000000000000, 1.000000000000000000 ) ) ;
#276 = ORIENTED_EDGE ( 'NONE', *, *, #289, .F. ) ;
#277 = FACE_OUTER_BOUND ( 'NONE', #229, .T. ) ;
#278 = DIRECTION ( 'NONE',  ( 1.000000000000000000, 0.0000000000000000000, 0.0000000000000000000 ) ) ;
#279 =( LENGTH_UNIT ( ) NAMED_UNIT ( * ) SI_UNIT ( $, .METRE. ) );
#280 = DATE_AND_TIME ( #71, #226 ) ;
#281 = AXIS2_PLACEMENT_3D ( 'NONE', #99, #268, #126 ) ;
#282 = EDGE_LOOP ( 'NONE', ( #3 ) ) ;
#283 = APPROVAL ( #130, 'UNSPECIFIED' ) ;
#284 = VERTEX_POINT ( 'NONE', #27 ) ;
#285 = APPROVAL ( #298, 'UNSPECIFIED' ) ;
#286 = DIRECTION ( 'NONE',  ( 0.0000000000000000000, 0.0000000000000000000, -1.000000000000000000 ) ) ;
#287 = CIRCLE ( 'NONE', #52, 3.918706022208366100 ) ;
#288 = VERTEX_POINT ( 'NONE', #76 ) ;
#289 = EDGE_CURVE ( 'NONE', #307, #307, #90, .T. ) ;
#290 = EDGE_LOOP ( 'NONE', ( #18 ) ) ;
#291 = CARTESIAN_POINT ( 'NONE',  ( 0.0000000000000000000, 0.0000000000000000000, -2.370000000000000100 ) ) ;
#292 = DESIGN_CONTEXT ( 'detailed design', #213, 'design' ) ;
#293 =( GEOMETRIC_REPRESENTATION_CONTEXT ( 3 ) GLOBAL_UNCERTAINTY_ASSIGNED_CONTEXT ( ( #115 ) ) GLOBAL_UNIT_ASSIGNED_CONTEXT ( ( #210, #160, #135 ) ) REPRESENTATION_CONTEXT ( 'NONE', 'WORKASPACE' ) );
#294 = AXIS2_PLACEMENT_3D ( 'NONE', #218, #216, #263 ) ;
#295 = FACE_BOUND ( 'NONE', #330, .T. ) ;
#296 = EDGE_LOOP ( 'NONE', ( #77 ) ) ;
#297 = DIRECTION ( 'NONE',  ( -0.0000000000000000000, -0.0000000000000000000, 1.000000000000000000 ) ) ;
#298 = APPROVAL_STATUS ( 'not_yet_approved' ) ;
#299 = CALENDAR_DATE ( 2017, 31, 7 ) ;
#300 = EDGE_LOOP ( 'NONE', ( #70 ) ) ;
#301 = DATE_TIME_ROLE ( 'classification_date' ) ;
#302 = CIRCLE ( 'NONE', #2, 4.919999999999999900 ) ;
#303 = ORIENTED_EDGE ( 'NONE', *, *, #257, .T. ) ;
#304 = APPROVAL ( #306, 'UNSPECIFIED' ) ;
#305 = ADVANCED_FACE ( 'NONE', ( #329, #173 ), #245, .F. ) ;
#306 = APPROVAL_STATUS ( 'not_yet_approved' ) ;
#307 = VERTEX_POINT ( 'NONE', #331 ) ;
#308 = FACE_OUTER_BOUND ( 'NONE', #290, .T. ) ;
#309 = LOCAL_TIME ( 15, 24, 8.000000000000000000, #192 ) ;
#310 = AXIS2_PLACEMENT_3D ( 'NONE', #117, #139, #322 ) ;
#311 = AXIS2_PLACEMENT_3D ( 'NONE', #92, #11, #182 ) ;
#312 = PERSON_AND_ORGANIZATION ( #81, #270 ) ;
#313 = EDGE_LOOP ( 'NONE', ( #234 ) ) ;
#314 = ADVANCED_FACE ( 'NONE', ( #209, #239 ), #155, .T. ) ;
#315 = CC_DESIGN_PERSON_AND_ORGANIZATION_ASSIGNMENT ( #206, #159, ( #137 ) ) ;
#316 = CARTESIAN_POINT ( 'NONE',  ( 0.0000000000000000000, 0.0000000000000000000, 0.0000000000000000000 ) ) ;
#317 = DIRECTION ( 'NONE',  ( -0.0000000000000000000, -0.0000000000000000000, 1.000000000000000000 ) ) ;
#318 = EDGE_LOOP ( 'NONE', ( #178 ) ) ;
#319 = DATE_AND_TIME ( #128, #169 ) ;
#320 = CC_DESIGN_PERSON_AND_ORGANIZATION_ASSIGNMENT ( #312, #69, ( #57 ) ) ;
#321 = VERTEX_POINT ( 'NONE', #12 ) ;
#322 = DIRECTION ( 'NONE',  ( -1.000000000000000000, 0.0000000000000000000, 0.0000000000000000000 ) ) ;
#323 = PLANE ( 'NONE',  #14 ) ;
#324 = COORDINATED_UNIVERSAL_TIME_OFFSET ( 5, 0, .BEHIND. ) ;
#325 = FACE_OUTER_BOUND ( 'NONE', #122, .T. ) ;
#326 = DIRECTION ( 'NONE',  ( 0.0000000000000000000, 0.0000000000000000000, -1.000000000000000000 ) ) ;
#327 = CC_DESIGN_PERSON_AND_ORGANIZATION_ASSIGNMENT ( #174, #261, ( #152 ) ) ;
#328 = DIRECTION ( 'NONE',  ( 1.000000000000000000, 0.0000000000000000000, 0.0000000000000000000 ) ) ;
#329 = FACE_OUTER_BOUND ( 'NONE', #238, .T. ) ;
#330 = EDGE_LOOP ( 'NONE', ( #303 ) ) ;
#331 = CARTESIAN_POINT ( 'NONE',  ( -4.819999999999999400, 0.0000000000000000000, -1.250000000000000000 ) ) ;
#332 = AXIS2_PLACEMENT_3D ( 'NONE', #104, #120, #60 ) ;
ENDSEC;
END-ISO-10303-21;
