ISO-10303-21;
HEADER;
FILE_DESCRIPTION (( 'STEP AP203' ),
    '1' );
FILE_NAME ('581207532.STEP',
    '2017-07-31T18:50:45',
    ( '' ),
    ( '' ),
    'SwSTEP 2.0',
    'SolidWorks 2017',
    '' );
FILE_SCHEMA (( 'CONFIG_CONTROL_DESIGN' ));
ENDSEC;

DATA;
#1 = CIRCLE ( 'NONE', #29, 3.149999999999999900 ) ;
#2 = ORIENTED_EDGE ( 'NONE', *, *, #174, .F. ) ;
#3 = EDGE_LOOP ( 'NONE', ( #273 ) ) ;
#4 = EDGE_CURVE ( 'NONE', #263, #263, #91, .T. ) ;
#5 = ORIENTED_EDGE ( 'NONE', *, *, #195, .T. ) ;
#6 = CARTESIAN_POINT ( 'NONE',  ( 3.030000000000000200, 0.0000000000000000000, -1.750000000000000200 ) ) ;
#7 = PERSON_AND_ORGANIZATION ( #144, #83 ) ;
#8 = CARTESIAN_POINT ( 'NONE',  ( 0.0000000000000000000, 0.0000000000000000000, 0.0000000000000000000 ) ) ;
#9 = CARTESIAN_POINT ( 'NONE',  ( 1.840285808591116200, 0.0000000000000000000, -0.9190512853060169900 ) ) ;
#10 = FACE_OUTER_BOUND ( 'NONE', #112, .T. ) ;
#11 = CARTESIAN_POINT ( 'NONE',  ( 2.165000000000000000, 0.0000000000000000000, -3.000000000000000400 ) ) ;
#12 =( LENGTH_UNIT ( ) NAMED_UNIT ( * ) SI_UNIT ( $, .METRE. ) );
#13 = ORIENTED_EDGE ( 'NONE', *, *, #37, .T. ) ;
#14 = COORDINATED_UNIVERSAL_TIME_OFFSET ( 5, 0, .BEHIND. ) ;
#15 = AXIS2_PLACEMENT_3D ( 'NONE', #116, #149, #73 ) ;
#16 = TOROIDAL_SURFACE ( 'NONE', #66, 2.455000000000000100, 0.1199999999999998700 ) ;
#17 = CARTESIAN_POINT ( 'NONE',  ( 0.0000000000000000000, 0.0000000000000000000, 0.0000000000000000000 ) ) ;
#18 = EDGE_CURVE ( 'NONE', #252, #252, #293, .T. ) ;
#19 = FACE_OUTER_BOUND ( 'NONE', #3, .T. ) ;
#20 = CALENDAR_DATE ( 2017, 31, 7 ) ;
#21 = DIRECTION ( 'NONE',  ( 1.000000000000000000, 0.0000000000000000000, 0.0000000000000000000 ) ) ;
#22 = VERTEX_POINT ( 'NONE', #159 ) ;
#23 = DIRECTION ( 'NONE',  ( -0.0000000000000000000, -0.0000000000000000000, 1.000000000000000000 ) ) ;
#24 = AXIS2_PLACEMENT_3D ( 'NONE', #8, #136, #261 ) ;
#25 = DIRECTION ( 'NONE',  ( -0.0000000000000000000, -0.0000000000000000000, 1.000000000000000000 ) ) ;
#26 = DIRECTION ( 'NONE',  ( -0.0000000000000000000, -0.0000000000000000000, 1.000000000000000000 ) ) ;
#27 = FACE_OUTER_BOUND ( 'NONE', #243, .T. ) ;
#28 = COORDINATED_UNIVERSAL_TIME_OFFSET ( 5, 0, .BEHIND. ) ;
#29 = AXIS2_PLACEMENT_3D ( 'NONE', #86, #53, #211 ) ;
#30 = TOROIDAL_SURFACE ( 'NONE', #67, 1.890999999999999800, 0.1200000000000002200 ) ;
#31 = PERSON_AND_ORGANIZATION_ROLE ( 'classification_officer' ) ;
#32 = APPROVAL_STATUS ( 'not_yet_approved' ) ;
#33 = ADVANCED_FACE ( 'NONE', ( #19, #148 ), #34, .T. ) ;
#34 = TOROIDAL_SURFACE ( 'NONE', #329, 3.030000000000000200, 0.1199999999999998200 ) ;
#35 = ADVANCED_BREP_SHAPE_REPRESENTATION ( '581207532', ( #128, #24 ), #132 ) ;
#36 = CARTESIAN_POINT ( 'NONE',  ( 0.0000000000000000000, 0.0000000000000000000, -0.6087569344443979300 ) ) ;
#37 = EDGE_CURVE ( 'NONE', #126, #126, #82, .T. ) ;
#38 = CLOSED_SHELL ( 'NONE', ( #61, #92, #270, #269, #139, #259, #142, #65, #108, #137, #33, #164 ) ) ;
#39 = PRODUCT_DEFINITION ( 'UNKNOWN', '', #248, #154 ) ;
#40 = EDGE_LOOP ( 'NONE', ( #5 ) ) ;
#41 = DIRECTION ( 'NONE',  ( -0.0000000000000000000, -0.0000000000000000000, 1.000000000000000000 ) ) ;
#42 = EDGE_LOOP ( 'NONE', ( #119 ) ) ;
#43 = FACE_OUTER_BOUND ( 'NONE', #326, .T. ) ;
#44 = DIRECTION ( 'NONE',  ( 1.000000000000000000, 0.0000000000000000000, 0.0000000000000000000 ) ) ;
#45 = AXIS2_PLACEMENT_3D ( 'NONE', #313, #134, #288 ) ;
#46 = AXIS2_PLACEMENT_3D ( 'NONE', #200, #98, #21 ) ;
#47 = DIRECTION ( 'NONE',  ( 1.000000000000000000, 0.0000000000000000000, 0.0000000000000000000 ) ) ;
#48 = LOCAL_TIME ( 14, 50, 45.00000000000000000, #28 ) ;
#49 = CALENDAR_DATE ( 2017, 31, 7 ) ;
#50 = ORIENTED_EDGE ( 'NONE', *, *, #163, .F. ) ;
#51 = EDGE_LOOP ( 'NONE', ( #244 ) ) ;
#52 = FACE_OUTER_BOUND ( 'NONE', #187, .T. ) ;
#53 = DIRECTION ( 'NONE',  ( -0.0000000000000000000, -0.0000000000000000000, 1.000000000000000000 ) ) ;
#54 = DIRECTION ( 'NONE',  ( 1.000000000000000000, 0.0000000000000000000, 0.0000000000000000000 ) ) ;
#55 = CC_DESIGN_PERSON_AND_ORGANIZATION_ASSIGNMENT ( #278, #58, ( #192 ) ) ;
#56 = DATE_TIME_ROLE ( 'creation_date' ) ;
#57 = CALENDAR_DATE ( 2017, 31, 7 ) ;
#58 = PERSON_AND_ORGANIZATION_ROLE ( 'design_owner' ) ;
#59 = CIRCLE ( 'NONE', #234, 3.030000000000000200 ) ;
#60 = VERTEX_POINT ( 'NONE', #179 ) ;
#61 = ADVANCED_FACE ( 'NONE', ( #297, #284 ), #303, .F. ) ;
#62 = ORIENTED_EDGE ( 'NONE', *, *, #299, .F. ) ;
#63 = EDGE_LOOP ( 'NONE', ( #268 ) ) ;
#64 = ORIENTED_EDGE ( 'NONE', *, *, #241, .F. ) ;
#65 = ADVANCED_FACE ( 'NONE', ( #223, #156 ), #231, .T. ) ;
#66 = AXIS2_PLACEMENT_3D ( 'NONE', #188, #109, #141 ) ;
#67 = AXIS2_PLACEMENT_3D ( 'NONE', #75, #41, #300 ) ;
#68 = PERSON_AND_ORGANIZATION ( #144, #83 ) ;
#69 = FACE_BOUND ( 'NONE', #115, .T. ) ;
#70 = PERSON_AND_ORGANIZATION ( #144, #83 ) ;
#71 = VERTEX_POINT ( 'NONE', #6 ) ;
#72 = ORIENTED_EDGE ( 'NONE', *, *, #4, .F. ) ;
#73 = DIRECTION ( 'NONE',  ( 1.000000000000000000, 0.0000000000000000000, 0.0000000000000000000 ) ) ;
#74 = EDGE_LOOP ( 'NONE', ( #327 ) ) ;
#75 = CARTESIAN_POINT ( 'NONE',  ( 0.0000000000000000000, 0.0000000000000000000, -1.027808219750415300 ) ) ;
#76 = DIRECTION ( 'NONE',  ( -1.000000000000000000, 0.0000000000000000000, -0.0000000000000000000 ) ) ;
#77 = DIRECTION ( 'NONE',  ( -0.0000000000000000000, -0.0000000000000000000, 1.000000000000000000 ) ) ;
#78 = APPROVAL ( #258, 'UNSPECIFIED' ) ;
#79 = DIRECTION ( 'NONE',  ( 1.000000000000000000, 0.0000000000000000000, 0.0000000000000000000 ) ) ;
#80 = FACE_OUTER_BOUND ( 'NONE', #130, .T. ) ;
#81 = EDGE_LOOP ( 'NONE', ( #176 ) ) ;
#82 = CIRCLE ( 'NONE', #181, 2.575000000000000200 ) ;
#83 = ORGANIZATION ( 'UNSPECIFIED', 'UNSPECIFIED', '' ) ;
#84 = LOCAL_TIME ( 14, 50, 45.00000000000000000, #14 ) ;
#85 = AXIS2_PLACEMENT_3D ( 'NONE', #182, #295, #54 ) ;
#86 = CARTESIAN_POINT ( 'NONE',  ( 0.0000000000000000000, 0.0000000000000000000, -1.630000000000000300 ) ) ;
#87 = SECURITY_CLASSIFICATION_LEVEL ( 'unclassified' ) ;
#88 = APPROVAL_ROLE ( '' ) ;
#89 = APPLICATION_CONTEXT ( 'configuration controlled 3d designs of mechanical parts and assemblies' ) ;
#90 = DIRECTION ( 'NONE',  ( 1.000000000000000000, 0.0000000000000000000, 0.0000000000000000000 ) ) ;
#91 = CIRCLE ( 'NONE', #230, 1.840285808591116200 ) ;
#92 = ADVANCED_FACE ( 'NONE', ( #27, #96 ), #120, .F. ) ;
#93 = DATE_AND_TIME ( #20, #157 ) ;
#94 = VERTEX_POINT ( 'NONE', #161 ) ;
#95 = UNCERTAINTY_MEASURE_WITH_UNIT (LENGTH_MEASURE( 1.000000000000000100E-005 ), #162, 'distance_accuracy_value', 'NONE');
#96 = FACE_OUTER_BOUND ( 'NONE', #266, .T. ) ;
#97 = PLANE ( 'NONE',  #15 ) ;
#98 = DIRECTION ( 'NONE',  ( 0.0000000000000000000, -0.0000000000000000000, 1.000000000000000000 ) ) ;
#99 = APPROVAL_PERSON_ORGANIZATION ( #7, #78, #88 ) ;
#100 = DIRECTION ( 'NONE',  ( 1.000000000000000000, 0.0000000000000000000, 0.0000000000000000000 ) ) ;
#101 = FACE_OUTER_BOUND ( 'NONE', #63, .T. ) ;
#102 = AXIS2_PLACEMENT_3D ( 'NONE', #307, #26, #173 ) ;
#103 = DIRECTION ( 'NONE',  ( -0.0000000000000000000, -0.0000000000000000000, 1.000000000000000000 ) ) ;
#104 = FACE_BOUND ( 'NONE', #40, .T. ) ;
#105 = PERSON_AND_ORGANIZATION_ROLE ( 'creator' ) ;
#106 = APPLICATION_PROTOCOL_DEFINITION ( 'international standard', 'config_control_design', 1994, #214 ) ;
#107 = APPLICATION_PROTOCOL_DEFINITION ( 'international standard', 'config_control_design', 1994, #89 ) ;
#108 = ADVANCED_FACE ( 'NONE', ( #165, #43 ), #216, .F. ) ;
#109 = DIRECTION ( 'NONE',  ( -0.0000000000000000000, -0.0000000000000000000, 1.000000000000000000 ) ) ;
#110 = APPROVAL_DATE_TIME ( #318, #220 ) ;
#111 = DATE_TIME_ROLE ( 'classification_date' ) ;
#112 = EDGE_LOOP ( 'NONE', ( #129 ) ) ;
#113 = AXIS2_PLACEMENT_3D ( 'NONE', #236, #257, #218 ) ;
#114 = CONICAL_SURFACE ( 'NONE', #203, 2.505714191408883600, 1.134464013796316700 ) ;
#115 = EDGE_LOOP ( 'NONE', ( #72 ) ) ;
#116 = CARTESIAN_POINT ( 'NONE',  ( 0.0000000000000000000, 2.165000000000000000, -3.000000000000000400 ) ) ;
#117 = ORIENTED_EDGE ( 'NONE', *, *, #18, .T. ) ;
#118 = CC_DESIGN_APPROVAL ( #296, ( #180 ) ) ;
#119 = ORIENTED_EDGE ( 'NONE', *, *, #163, .T. ) ;
#120 = CYLINDRICAL_SURFACE ( 'NONE', #235, 2.575000000000000200 ) ;
#121 = CARTESIAN_POINT ( 'NONE',  ( 0.0000000000000000000, 0.0000000000000000000, -0.5000000000000001100 ) ) ;
#122 = DIRECTION ( 'NONE',  ( 1.000000000000000000, 0.0000000000000000000, 0.0000000000000000000 ) ) ;
#123 = DIRECTION ( 'NONE',  ( -0.0000000000000000000, -0.0000000000000000000, 1.000000000000000000 ) ) ;
#124 = CALENDAR_DATE ( 2017, 31, 7 ) ;
#125 = FACE_OUTER_BOUND ( 'NONE', #199, .T. ) ;
#126 = VERTEX_POINT ( 'NONE', #256 ) ;
#127 = ORIENTED_EDGE ( 'NONE', *, *, #265, .T. ) ;
#128 = MANIFOLD_SOLID_BREP ( 'Revolve1', #38 ) ;
#129 = ORIENTED_EDGE ( 'NONE', *, *, #319, .T. ) ;
#130 = EDGE_LOOP ( 'NONE', ( #13 ) ) ;
#131 = VERTEX_POINT ( 'NONE', #315 ) ;
#132 =( GEOMETRIC_REPRESENTATION_CONTEXT ( 3 ) GLOBAL_UNCERTAINTY_ASSIGNED_CONTEXT ( ( #95 ) ) GLOBAL_UNIT_ASSIGNED_CONTEXT ( ( #162, #317, #138 ) ) REPRESENTATION_CONTEXT ( 'NONE', 'WORKASPACE' ) );
#133 = AXIS2_PLACEMENT_3D ( 'NONE', #229, #205, #172 ) ;
#134 = DIRECTION ( 'NONE',  ( -0.0000000000000000000, -0.0000000000000000000, 1.000000000000000000 ) ) ;
#135 = PERSON_AND_ORGANIZATION_ROLE ( 'design_supplier' ) ;
#136 = DIRECTION ( 'NONE',  ( 0.0000000000000000000, 0.0000000000000000000, 1.000000000000000000 ) ) ;
#137 = ADVANCED_FACE ( 'NONE', ( #52, #104 ), #227, .F. ) ;
#138 =( NAMED_UNIT ( * ) SI_UNIT ( $, .STERADIAN. ) SOLID_ANGLE_UNIT ( ) );
#139 = ADVANCED_FACE ( 'NONE', ( #240, #101 ), #30, .T. ) ;
#140 = ORIENTED_EDGE ( 'NONE', *, *, #195, .F. ) ;
#141 = DIRECTION ( 'NONE',  ( 1.000000000000000000, 0.0000000000000000000, 0.0000000000000000000 ) ) ;
#142 = ADVANCED_FACE ( 'NONE', ( #178, #232 ), #97, .F. ) ;
#143 = CIRCLE ( 'NONE', #113, 2.165000000000000000 ) ;
#144 = PERSON ( 'UNSPECIFIED', 'UNSPECIFIED', 'UNSPECIFIED', ('UNSPECIFIED'), ('UNSPECIFIED'), ('UNSPECIFIED') ) ;
#145 = VERTEX_POINT ( 'NONE', #312 ) ;
#146 = EDGE_CURVE ( 'NONE', #60, #60, #323, .T. ) ;
#147 = CARTESIAN_POINT ( 'NONE',  ( 0.0000000000000000000, 0.0000000000000000000, -1.870000000000000600 ) ) ;
#148 = FACE_OUTER_BOUND ( 'NONE', #321, .T. ) ;
#149 = DIRECTION ( 'NONE',  ( 0.0000000000000000000, -0.0000000000000000000, 1.000000000000000000 ) ) ;
#150 = DIRECTION ( 'NONE',  ( -0.0000000000000000000, -0.0000000000000000000, 1.000000000000000000 ) ) ;
#151 = DATE_AND_TIME ( #219, #84 ) ;
#152 = AXIS2_PLACEMENT_3D ( 'NONE', #171, #23, #44 ) ;
#153 = CARTESIAN_POINT ( 'NONE',  ( 0.0000000000000000000, 0.0000000000000000000, -0.9190512853060169900 ) ) ;
#154 = DESIGN_CONTEXT ( 'detailed design', #214, 'design' ) ;
#155 = DIRECTION ( 'NONE',  ( 1.000000000000000000, 0.0000000000000000000, 0.0000000000000000000 ) ) ;
#156 = FACE_OUTER_BOUND ( 'NONE', #309, .T. ) ;
#157 = LOCAL_TIME ( 14, 50, 45.00000000000000000, #217 ) ;
#158 = CC_DESIGN_PERSON_AND_ORGANIZATION_ASSIGNMENT ( #225, #31, ( #180 ) ) ;
#159 = CARTESIAN_POINT ( 'NONE',  ( 2.285000000000000100, 0.0000000000000000000, -1.750000000000000200 ) ) ;
#160 = DIRECTION ( 'NONE',  ( -0.0000000000000000000, -0.0000000000000000000, 1.000000000000000000 ) ) ;
#161 = CARTESIAN_POINT ( 'NONE',  ( 3.149999999999999900, 0.0000000000000000000, -7.909613564530951900E-017 ) ) ;
#162 =( CONVERSION_BASED_UNIT ( 'INCH', #226 ) LENGTH_UNIT ( ) NAMED_UNIT ( #247 ) );
#163 = EDGE_CURVE ( 'NONE', #145, #145, #166, .T. ) ;
#164 = ADVANCED_FACE ( 'NONE', ( #311, #10 ), #302, .T. ) ;
#165 = FACE_OUTER_BOUND ( 'NONE', #189, .T. ) ;
#166 = CIRCLE ( 'NONE', #133, 1.771000000000000100 ) ;
#167 = AXIS2_PLACEMENT_3D ( 'NONE', #282, #103, #90 ) ;
#168 = AXIS2_PLACEMENT_3D ( 'NONE', #281, #246, #76 ) ;
#169 = PRODUCT_RELATED_PRODUCT_CATEGORY ( 'detail', '', ( #192 ) ) ;
#170 = CARTESIAN_POINT ( 'NONE',  ( 0.0000000000000000000, 0.0000000000000000000, 0.0000000000000000000 ) ) ;
#171 = CARTESIAN_POINT ( 'NONE',  ( 0.0000000000000000000, 0.0000000000000000000, 0.0000000000000000000 ) ) ;
#172 = DIRECTION ( 'NONE',  ( 1.000000000000000000, 0.0000000000000000000, 0.0000000000000000000 ) ) ;
#173 = DIRECTION ( 'NONE',  ( 1.000000000000000000, 0.0000000000000000000, 0.0000000000000000000 ) ) ;
#174 = EDGE_CURVE ( 'NONE', #71, #71, #59, .T. ) ;
#175 = COORDINATED_UNIVERSAL_TIME_OFFSET ( 5, 0, .BEHIND. ) ;
#176 = ORIENTED_EDGE ( 'NONE', *, *, #283, .T. ) ;
#177 = ORIENTED_EDGE ( 'NONE', *, *, #174, .T. ) ;
#178 = FACE_OUTER_BOUND ( 'NONE', #51, .T. ) ;
#179 = CARTESIAN_POINT ( 'NONE',  ( 2.164999999999999600, 0.0000000000000000000, -1.870000000000000600 ) ) ;
#180 = SECURITY_CLASSIFICATION ( '', '', #87 ) ;
#181 = AXIS2_PLACEMENT_3D ( 'NONE', #121, #277, #100 ) ;
#182 = CARTESIAN_POINT ( 'NONE',  ( 0.0000000000000000000, 0.0000000000000000000, -7.909613564530951900E-017 ) ) ;
#183 = LOCAL_TIME ( 14, 50, 45.00000000000000000, #316 ) ;
#184 = CARTESIAN_POINT ( 'NONE',  ( 2.575000000000000200, 0.0000000000000000000, -1.495133265962823100E-016 ) ) ;
#185 = CIRCLE ( 'NONE', #85, 3.149999999999999900 ) ;
#186 = ORIENTED_EDGE ( 'NONE', *, *, #146, .F. ) ;
#187 = EDGE_LOOP ( 'NONE', ( #2 ) ) ;
#188 = CARTESIAN_POINT ( 'NONE',  ( 0.0000000000000000000, 0.0000000000000000000, -0.5000000000000001100 ) ) ;
#189 = EDGE_LOOP ( 'NONE', ( #140 ) ) ;
#190 = PRODUCT_DEFINITION_SHAPE ( 'NONE', 'NONE',  #39 ) ;
#191 = DATE_AND_TIME ( #124, #48 ) ;
#192 = PRODUCT ( '581207532', '581207532', '', ( #238 ) ) ;
#193 = FACE_OUTER_BOUND ( 'NONE', #310, .T. ) ;
#194 = SHAPE_DEFINITION_REPRESENTATION ( #190, #35 ) ;
#195 = EDGE_CURVE ( 'NONE', #22, #22, #206, .T. ) ;
#196 = ORIENTED_EDGE ( 'NONE', *, *, #283, .F. ) ;
#197 = DIRECTION ( 'NONE',  ( 1.000000000000000000, 0.0000000000000000000, 0.0000000000000000000 ) ) ;
#198 = EDGE_LOOP ( 'NONE', ( #186 ) ) ;
#199 = EDGE_LOOP ( 'NONE', ( #290 ) ) ;
#200 = CARTESIAN_POINT ( 'NONE',  ( 0.0000000000000000000, 3.030000000000000200, -1.750000000000000200 ) ) ;
#201 = CC_DESIGN_APPROVAL ( #220, ( #248 ) ) ;
#202 = DIRECTION ( 'NONE',  ( 1.000000000000000000, 0.0000000000000000000, 0.0000000000000000000 ) ) ;
#203 = AXIS2_PLACEMENT_3D ( 'NONE', #36, #160, #292 ) ;
#204 = AXIS2_PLACEMENT_3D ( 'NONE', #147, #298, #79 ) ;
#205 = DIRECTION ( 'NONE',  ( -0.0000000000000000000, -0.0000000000000000000, 1.000000000000000000 ) ) ;
#206 = CIRCLE ( 'NONE', #250, 2.285000000000000100 ) ;
#207 = CARTESIAN_POINT ( 'NONE',  ( 0.0000000000000000000, 0.0000000000000000000, -1.750000000000000200 ) ) ;
#208 = CIRCLE ( 'NONE', #45, 1.770999999999999500 ) ;
#209 = ORIENTED_EDGE ( 'NONE', *, *, #37, .F. ) ;
#210 = VERTEX_POINT ( 'NONE', #11 ) ;
#211 = DIRECTION ( 'NONE',  ( 1.000000000000000000, 0.0000000000000000000, 0.0000000000000000000 ) ) ;
#212 = APPROVAL_ROLE ( '' ) ;
#213 = CYLINDRICAL_SURFACE ( 'NONE', #102, 1.770999999999999700 ) ;
#214 = APPLICATION_CONTEXT ( 'configuration controlled 3d designs of mechanical parts and assemblies' ) ;
#215 = AXIS2_PLACEMENT_3D ( 'NONE', #249, #77, #228 ) ;
#216 = TOROIDAL_SURFACE ( 'NONE', #222, 2.285000000000000100, 0.1200000000000003600 ) ;
#217 = COORDINATED_UNIVERSAL_TIME_OFFSET ( 5, 0, .BEHIND. ) ;
#218 = DIRECTION ( 'NONE',  ( 1.000000000000000000, 0.0000000000000000000, 0.0000000000000000000 ) ) ;
#219 = CALENDAR_DATE ( 2017, 31, 7 ) ;
#220 = APPROVAL ( #32, 'UNSPECIFIED' ) ;
#221 = AXIS2_PLACEMENT_3D ( 'NONE', #17, #224, #197 ) ;
#222 = AXIS2_PLACEMENT_3D ( 'NONE', #274, #301, #245 ) ;
#223 = FACE_OUTER_BOUND ( 'NONE', #198, .T. ) ;
#224 = DIRECTION ( 'NONE',  ( -0.0000000000000000000, -0.0000000000000000000, 1.000000000000000000 ) ) ;
#225 = PERSON_AND_ORGANIZATION ( #144, #83 ) ;
#226 = LENGTH_MEASURE_WITH_UNIT ( LENGTH_MEASURE( 0.02539999999999999900 ), #12 );
#227 = PLANE ( 'NONE',  #46 ) ;
#228 = DIRECTION ( 'NONE',  ( 1.000000000000000000, 0.0000000000000000000, 0.0000000000000000000 ) ) ;
#229 = CARTESIAN_POINT ( 'NONE',  ( 0.0000000000000000000, 0.0000000000000000000, -3.000000000000000400 ) ) ;
#230 = AXIS2_PLACEMENT_3D ( 'NONE', #153, #305, #122 ) ;
#231 = CYLINDRICAL_SURFACE ( 'NONE', #152, 2.165000000000000000 ) ;
#232 = FACE_BOUND ( 'NONE', #42, .T. ) ;
#233 = CC_DESIGN_DATE_AND_TIME_ASSIGNMENT ( #325, #56, ( #39 ) ) ;
#234 = AXIS2_PLACEMENT_3D ( 'NONE', #330, #123, #306 ) ;
#235 = AXIS2_PLACEMENT_3D ( 'NONE', #170, #150, #202 ) ;
#236 = CARTESIAN_POINT ( 'NONE',  ( 0.0000000000000000000, 0.0000000000000000000, -3.000000000000000400 ) ) ;
#237 = PERSON_AND_ORGANIZATION_ROLE ( 'creator' ) ;
#238 = MECHANICAL_CONTEXT ( 'NONE', #89, 'mechanical' ) ;
#239 = CC_DESIGN_SECURITY_CLASSIFICATION ( #180, ( #248 ) ) ;
#240 = FACE_OUTER_BOUND ( 'NONE', #253, .T. ) ;
#241 = EDGE_CURVE ( 'NONE', #286, #286, #272, .T. ) ;
#242 = PERSON_AND_ORGANIZATION ( #144, #83 ) ;
#243 = EDGE_LOOP ( 'NONE', ( #209 ) ) ;
#244 = ORIENTED_EDGE ( 'NONE', *, *, #265, .F. ) ;
#245 = DIRECTION ( 'NONE',  ( 1.000000000000000000, 0.0000000000000000000, 0.0000000000000000000 ) ) ;
#246 = DIRECTION ( 'NONE',  ( 0.0000000000000000000, 0.0000000000000000000, -1.000000000000000000 ) ) ;
#247 = DIMENSIONAL_EXPONENTS ( 1.000000000000000000, 0.0000000000000000000, 0.0000000000000000000, 0.0000000000000000000, 0.0000000000000000000, 0.0000000000000000000, 0.0000000000000000000 ) ;
#248 = PRODUCT_DEFINITION_FORMATION_WITH_SPECIFIED_SOURCE ( 'ANY', '', #192, .NOT_KNOWN. ) ;
#249 = CARTESIAN_POINT ( 'NONE',  ( 0.0000000000000000000, 0.0000000000000000000, -0.6087569344443979300 ) ) ;
#250 = AXIS2_PLACEMENT_3D ( 'NONE', #207, #331, #155 ) ;
#251 = APPROVAL_DATE_TIME ( #191, #78 ) ;
#252 = VERTEX_POINT ( 'NONE', #314 ) ;
#253 = EDGE_LOOP ( 'NONE', ( #62 ) ) ;
#254 = ORIENTED_EDGE ( 'NONE', *, *, #146, .T. ) ;
#255 = EDGE_LOOP ( 'NONE', ( #64 ) ) ;
#256 = CARTESIAN_POINT ( 'NONE',  ( 2.575000000000000200, 0.0000000000000000000, -0.5000000000000001100 ) ) ;
#257 = DIRECTION ( 'NONE',  ( -0.0000000000000000000, -0.0000000000000000000, 1.000000000000000000 ) ) ;
#258 = APPROVAL_STATUS ( 'not_yet_approved' ) ;
#259 = ADVANCED_FACE ( 'NONE', ( #193, #125 ), #213, .F. ) ;
#260 = FACE_OUTER_BOUND ( 'NONE', #74, .T. ) ;
#261 = DIRECTION ( 'NONE',  ( 1.000000000000000000, 0.0000000000000000000, 0.0000000000000000000 ) ) ;
#262 = LOCAL_TIME ( 14, 50, 45.00000000000000000, #175 ) ;
#263 = VERTEX_POINT ( 'NONE', #9 ) ;
#264 = APPROVAL_ROLE ( '' ) ;
#265 = EDGE_CURVE ( 'NONE', #210, #210, #143, .T. ) ;
#266 = EDGE_LOOP ( 'NONE', ( #322 ) ) ;
#267 = APPROVAL_STATUS ( 'not_yet_approved' ) ;
#268 = ORIENTED_EDGE ( 'NONE', *, *, #4, .T. ) ;
#269 = ADVANCED_FACE ( 'NONE', ( #69, #332 ), #114, .F. ) ;
#270 = ADVANCED_FACE ( 'NONE', ( #260, #80 ), #16, .F. ) ;
#271 = CC_DESIGN_APPROVAL ( #78, ( #39 ) ) ;
#272 = CIRCLE ( 'NONE', #167, 2.575000000000000200 ) ;
#273 = ORIENTED_EDGE ( 'NONE', *, *, #319, .F. ) ;
#274 = CARTESIAN_POINT ( 'NONE',  ( 0.0000000000000000000, 0.0000000000000000000, -1.870000000000000600 ) ) ;
#275 = VERTEX_POINT ( 'NONE', #291 ) ;
#276 = CC_DESIGN_DATE_AND_TIME_ASSIGNMENT ( #93, #111, ( #180 ) ) ;
#277 = DIRECTION ( 'NONE',  ( -0.0000000000000000000, -0.0000000000000000000, 1.000000000000000000 ) ) ;
#278 = PERSON_AND_ORGANIZATION ( #144, #83 ) ;
#279 = APPROVAL_PERSON_ORGANIZATION ( #294, #296, #264 ) ;
#280 = CARTESIAN_POINT ( 'NONE',  ( 0.0000000000000000000, 0.0000000000000000000, -1.630000000000000300 ) ) ;
#281 = CARTESIAN_POINT ( 'NONE',  ( 0.0000000000000000000, 3.149999999999999900, -1.143047311207959100E-016 ) ) ;
#282 = CARTESIAN_POINT ( 'NONE',  ( 0.0000000000000000000, 0.0000000000000000000, -1.495133265962823100E-016 ) ) ;
#283 = EDGE_CURVE ( 'NONE', #94, #94, #185, .T. ) ;
#284 = FACE_OUTER_BOUND ( 'NONE', #81, .T. ) ;
#285 = PERSON_AND_ORGANIZATION ( #144, #83 ) ;
#286 = VERTEX_POINT ( 'NONE', #184 ) ;
#287 = APPROVAL_DATE_TIME ( #151, #296 ) ;
#288 = DIRECTION ( 'NONE',  ( 1.000000000000000000, 0.0000000000000000000, 0.0000000000000000000 ) ) ;
#289 = CC_DESIGN_PERSON_AND_ORGANIZATION_ASSIGNMENT ( #68, #237, ( #39 ) ) ;
#290 = ORIENTED_EDGE ( 'NONE', *, *, #299, .T. ) ;
#291 = CARTESIAN_POINT ( 'NONE',  ( 3.149999999999999900, 0.0000000000000000000, -1.630000000000000300 ) ) ;
#292 = DIRECTION ( 'NONE',  ( 1.000000000000000000, 0.0000000000000000000, 0.0000000000000000000 ) ) ;
#293 = CIRCLE ( 'NONE', #215, 2.505714191408883600 ) ;
#294 = PERSON_AND_ORGANIZATION ( #144, #83 ) ;
#295 = DIRECTION ( 'NONE',  ( -0.0000000000000000000, -0.0000000000000000000, 1.000000000000000000 ) ) ;
#296 = APPROVAL ( #267, 'UNSPECIFIED' ) ;
#297 = FACE_BOUND ( 'NONE', #255, .T. ) ;
#298 = DIRECTION ( 'NONE',  ( -0.0000000000000000000, -0.0000000000000000000, 1.000000000000000000 ) ) ;
#299 = EDGE_CURVE ( 'NONE', #131, #131, #208, .T. ) ;
#300 = DIRECTION ( 'NONE',  ( 1.000000000000000000, 0.0000000000000000000, 0.0000000000000000000 ) ) ;
#301 = DIRECTION ( 'NONE',  ( -0.0000000000000000000, -0.0000000000000000000, 1.000000000000000000 ) ) ;
#302 = CYLINDRICAL_SURFACE ( 'NONE', #221, 3.149999999999999900 ) ;
#303 = PLANE ( 'NONE',  #168 ) ;
#304 = CC_DESIGN_PERSON_AND_ORGANIZATION_ASSIGNMENT ( #70, #105, ( #248 ) ) ;
#305 = DIRECTION ( 'NONE',  ( -0.0000000000000000000, -0.0000000000000000000, 1.000000000000000000 ) ) ;
#306 = DIRECTION ( 'NONE',  ( 1.000000000000000000, 0.0000000000000000000, 0.0000000000000000000 ) ) ;
#307 = CARTESIAN_POINT ( 'NONE',  ( 0.0000000000000000000, 0.0000000000000000000, 0.0000000000000000000 ) ) ;
#308 = APPROVAL_PERSON_ORGANIZATION ( #242, #220, #212 ) ;
#309 = EDGE_LOOP ( 'NONE', ( #127 ) ) ;
#310 = EDGE_LOOP ( 'NONE', ( #50 ) ) ;
#311 = FACE_OUTER_BOUND ( 'NONE', #328, .T. ) ;
#312 = CARTESIAN_POINT ( 'NONE',  ( 1.771000000000000100, 0.0000000000000000000, -3.000000000000000400 ) ) ;
#313 = CARTESIAN_POINT ( 'NONE',  ( 0.0000000000000000000, 0.0000000000000000000, -1.027808219750415300 ) ) ;
#314 = CARTESIAN_POINT ( 'NONE',  ( 2.505714191408883600, 0.0000000000000000000, -0.6087569344443979300 ) ) ;
#315 = CARTESIAN_POINT ( 'NONE',  ( 1.770999999999999500, 0.0000000000000000000, -1.027808219750415300 ) ) ;
#316 = COORDINATED_UNIVERSAL_TIME_OFFSET ( 5, 0, .BEHIND. ) ;
#317 =( NAMED_UNIT ( * ) PLANE_ANGLE_UNIT ( ) SI_UNIT ( $, .RADIAN. ) );
#318 = DATE_AND_TIME ( #49, #262 ) ;
#319 = EDGE_CURVE ( 'NONE', #275, #275, #1, .T. ) ;
#320 = EDGE_LOOP ( 'NONE', ( #117 ) ) ;
#321 = EDGE_LOOP ( 'NONE', ( #177 ) ) ;
#322 = ORIENTED_EDGE ( 'NONE', *, *, #241, .T. ) ;
#323 = CIRCLE ( 'NONE', #204, 2.164999999999999600 ) ;
#324 = CC_DESIGN_PERSON_AND_ORGANIZATION_ASSIGNMENT ( #285, #135, ( #248 ) ) ;
#325 = DATE_AND_TIME ( #57, #183 ) ;
#326 = EDGE_LOOP ( 'NONE', ( #254 ) ) ;
#327 = ORIENTED_EDGE ( 'NONE', *, *, #18, .F. ) ;
#328 = EDGE_LOOP ( 'NONE', ( #196 ) ) ;
#329 = AXIS2_PLACEMENT_3D ( 'NONE', #280, #25, #47 ) ;
#330 = CARTESIAN_POINT ( 'NONE',  ( 0.0000000000000000000, 0.0000000000000000000, -1.750000000000000200 ) ) ;
#331 = DIRECTION ( 'NONE',  ( -0.0000000000000000000, -0.0000000000000000000, 1.000000000000000000 ) ) ;
#332 = FACE_OUTER_BOUND ( 'NONE', #320, .T. ) ;
ENDSEC;
END-ISO-10303-21;
