ISO-10303-21;
HEADER;
FILE_DESCRIPTION (( 'STEP AP203' ),
    '1' );
FILE_NAME ('581207422.STEP',
    '2017-07-31T18:43:30',
    ( '' ),
    ( '' ),
    'SwSTEP 2.0',
    'SolidWorks 2017',
    '' );
FILE_SCHEMA (( 'CONFIG_CONTROL_DESIGN' ));
ENDSEC;

DATA;
#1 = EDGE_CURVE ( 'NONE', #307, #307, #265, .T. ) ;
#2 = CARTESIAN_POINT ( 'NONE',  ( 0.0000000000000000000, 0.0000000000000000000, 1.889664804469273200 ) ) ;
#3 = PLANE ( 'NONE',  #309 ) ;
#4 = CYLINDRICAL_SURFACE ( 'NONE', #332, 1.771000000000000100 ) ;
#5 = DIRECTION ( 'NONE',  ( 1.000000000000000000, 0.0000000000000000000, 0.0000000000000000000 ) ) ;
#6 = DIRECTION ( 'NONE',  ( 1.000000000000000000, 0.0000000000000000000, 0.0000000000000000000 ) ) ;
#7 = ADVANCED_FACE ( 'NONE', ( #250, #195 ), #122, .T. ) ;
#8 =( NAMED_UNIT ( * ) SI_UNIT ( $, .STERADIAN. ) SOLID_ANGLE_UNIT ( ) );
#9 = APPROVAL_ROLE ( '' ) ;
#10 = CIRCLE ( 'NONE', #325, 1.446999999999999600 ) ;
#11 = APPLICATION_PROTOCOL_DEFINITION ( 'international standard', 'config_control_design', 1994, #39 ) ;
#12 = DATE_TIME_ROLE ( 'classification_date' ) ;
#13 = COORDINATED_UNIVERSAL_TIME_OFFSET ( 5, 0, .BEHIND. ) ;
#14 = CYLINDRICAL_SURFACE ( 'NONE', #70, 1.770000000000000000 ) ;
#15 = ORIENTED_EDGE ( 'NONE', *, *, #275, .T. ) ;
#16 = ADVANCED_BREP_SHAPE_REPRESENTATION ( '581207422', ( #113, #254 ), #106 ) ;
#17 = ORIENTED_EDGE ( 'NONE', *, *, #43, .F. ) ;
#18 = DATE_AND_TIME ( #88, #153 ) ;
#19 = AXIS2_PLACEMENT_3D ( 'NONE', #330, #152, #310 ) ;
#20 = EDGE_CURVE ( 'NONE', #45, #45, #145, .T. ) ;
#21 = PERSON ( 'UNSPECIFIED', 'UNSPECIFIED', 'UNSPECIFIED', ('UNSPECIFIED'), ('UNSPECIFIED'), ('UNSPECIFIED') ) ;
#22 = SECURITY_CLASSIFICATION ( '', '', #142 ) ;
#23 = ORIENTED_EDGE ( 'NONE', *, *, #270, .F. ) ;
#24 = CLOSED_SHELL ( 'NONE', ( #115, #137, #34, #220, #288, #86, #266, #163, #242, #60, #190, #7 ) ) ;
#25 = CARTESIAN_POINT ( 'NONE',  ( 0.0000000000000000000, 0.0000000000000000000, -3.000000000000000400 ) ) ;
#26 = AXIS2_PLACEMENT_3D ( 'NONE', #313, #131, #284 ) ;
#27 = PERSON_AND_ORGANIZATION ( #21, #248 ) ;
#28 = CARTESIAN_POINT ( 'NONE',  ( 0.0000000000000000000, 1.770000000000000000, -3.000000000000000400 ) ) ;
#29 = FACE_OUTER_BOUND ( 'NONE', #125, .T. ) ;
#30 = DIRECTION ( 'NONE',  ( 0.0000000000000000000, -0.0000000000000000000, 1.000000000000000000 ) ) ;
#31 = ORIENTED_EDGE ( 'NONE', *, *, #262, .F. ) ;
#32 = ORIENTED_EDGE ( 'NONE', *, *, #158, .F. ) ;
#33 = CARTESIAN_POINT ( 'NONE',  ( 0.0000000000000000000, 0.0000000000000000000, -1.870000000000000100 ) ) ;
#34 = ADVANCED_FACE ( 'NONE', ( #322, #203 ), #54, .F. ) ;
#35 = APPROVAL_STATUS ( 'not_yet_approved' ) ;
#36 = PERSON_AND_ORGANIZATION ( #21, #248 ) ;
#37 = DIRECTION ( 'NONE',  ( 0.0000000000000000000, 0.0000000000000000000, 1.000000000000000000 ) ) ;
#38 = TOROIDAL_SURFACE ( 'NONE', #77, 1.566999999999999700, 0.1199999999999999100 ) ;
#39 = APPLICATION_CONTEXT ( 'configuration controlled 3d designs of mechanical parts and assemblies' ) ;
#40 = AXIS2_PLACEMENT_3D ( 'NONE', #128, #280, #103 ) ;
#41 = DESIGN_CONTEXT ( 'detailed design', #192, 'design' ) ;
#42 = APPROVAL_ROLE ( '' ) ;
#43 = EDGE_CURVE ( 'NONE', #112, #112, #255, .T. ) ;
#44 = ORIENTED_EDGE ( 'NONE', *, *, #1, .T. ) ;
#45 = VERTEX_POINT ( 'NONE', #207 ) ;
#46 = CALENDAR_DATE ( 2017, 31, 7 ) ;
#47 = FACE_OUTER_BOUND ( 'NONE', #67, .T. ) ;
#48 = APPROVAL_PERSON_ORGANIZATION ( #261, #302, #9 ) ;
#49 = EDGE_LOOP ( 'NONE', ( #298 ) ) ;
#50 = VERTEX_POINT ( 'NONE', #320 ) ;
#51 = DIRECTION ( 'NONE',  ( 1.000000000000000000, 0.0000000000000000000, 0.0000000000000000000 ) ) ;
#52 = CARTESIAN_POINT ( 'NONE',  ( 0.0000000000000000000, 0.0000000000000000000, -1.432501159273326800 ) ) ;
#53 = AXIS2_PLACEMENT_3D ( 'NONE', #210, #79, #312 ) ;
#54 = TOROIDAL_SURFACE ( 'NONE', #116, 1.651000000000000000, 0.1199999999999999500 ) ;
#55 = DIRECTION ( 'NONE',  ( -0.0000000000000000000, -0.0000000000000000000, 1.000000000000000000 ) ) ;
#56 = DIRECTION ( 'NONE',  ( -0.0000000000000000000, -0.0000000000000000000, 1.000000000000000000 ) ) ;
#57 = ORIENTED_EDGE ( 'NONE', *, *, #275, .F. ) ;
#58 = DATE_AND_TIME ( #160, #172 ) ;
#59 = DIRECTION ( 'NONE',  ( 1.000000000000000000, 0.0000000000000000000, 0.0000000000000000000 ) ) ;
#60 = ADVANCED_FACE ( 'NONE', ( #129, #326 ), #316, .F. ) ;
#61 = CC_DESIGN_PERSON_AND_ORGANIZATION_ASSIGNMENT ( #36, #321, ( #22 ) ) ;
#62 = APPLICATION_PROTOCOL_DEFINITION ( 'international standard', 'config_control_design', 1994, #192 ) ;
#63 = CC_DESIGN_PERSON_AND_ORGANIZATION_ASSIGNMENT ( #123, #221, ( #231 ) ) ;
#64 = CONICAL_SURFACE ( 'NONE', #281, 1.763763114494308900, 0.3490658503988671700 ) ;
#65 = CARTESIAN_POINT ( 'NONE',  ( 0.0000000000000000000, 0.0000000000000000000, -0.5410424171990803100 ) ) ;
#66 = FACE_OUTER_BOUND ( 'NONE', #277, .T. ) ;
#67 = EDGE_LOOP ( 'NONE', ( #57 ) ) ;
#68 = EDGE_LOOP ( 'NONE', ( #32 ) ) ;
#69 = CIRCLE ( 'NONE', #202, 2.044999999999999900 ) ;
#70 = AXIS2_PLACEMENT_3D ( 'NONE', #2, #212, #186 ) ;
#71 = EDGE_CURVE ( 'NONE', #251, #251, #69, .T. ) ;
#72 = CYLINDRICAL_SURFACE ( 'NONE', #91, 1.446999999999999600 ) ;
#73 = EDGE_LOOP ( 'NONE', ( #173 ) ) ;
#74 = APPROVAL ( #196, 'UNSPECIFIED' ) ;
#75 = CARTESIAN_POINT ( 'NONE',  ( 0.0000000000000000000, 0.0000000000000000000, 0.0000000000000000000 ) ) ;
#76 = DIRECTION ( 'NONE',  ( -0.0000000000000000000, -0.0000000000000000000, 1.000000000000000000 ) ) ;
#77 = AXIS2_PLACEMENT_3D ( 'NONE', #52, #208, #151 ) ;
#78 = DIRECTION ( 'NONE',  ( 1.000000000000000000, 0.0000000000000000000, 0.0000000000000000000 ) ) ;
#79 = DIRECTION ( 'NONE',  ( -0.0000000000000000000, -0.0000000000000000000, 1.000000000000000000 ) ) ;
#80 = DIRECTION ( 'NONE',  ( 1.000000000000000000, 0.0000000000000000000, 0.0000000000000000000 ) ) ;
#81 = DIRECTION ( 'NONE',  ( 1.000000000000000000, 0.0000000000000000000, 0.0000000000000000000 ) ) ;
#82 = FACE_OUTER_BOUND ( 'NONE', #84, .T. ) ;
#83 = DIRECTION ( 'NONE',  ( 1.000000000000000000, 0.0000000000000000000, 0.0000000000000000000 ) ) ;
#84 = EDGE_LOOP ( 'NONE', ( #328 ) ) ;
#85 = CARTESIAN_POINT ( 'NONE',  ( 0.0000000000000000000, 0.0000000000000000000, 0.0000000000000000000 ) ) ;
#86 = ADVANCED_FACE ( 'NONE', ( #331, #273 ), #72, .F. ) ;
#87 = ORIENTED_EDGE ( 'NONE', *, *, #108, .F. ) ;
#88 = CALENDAR_DATE ( 2017, 31, 7 ) ;
#89 = DIRECTION ( 'NONE',  ( -0.0000000000000000000, -0.0000000000000000000, 1.000000000000000000 ) ) ;
#90 = APPROVAL_ROLE ( '' ) ;
#91 = AXIS2_PLACEMENT_3D ( 'NONE', #161, #135, #5 ) ;
#92 = FACE_OUTER_BOUND ( 'NONE', #49, .T. ) ;
#93 = EDGE_LOOP ( 'NONE', ( #136 ) ) ;
#94 = EDGE_LOOP ( 'NONE', ( #150 ) ) ;
#95 = DATE_AND_TIME ( #166, #237 ) ;
#96 = AXIS2_PLACEMENT_3D ( 'NONE', #75, #233, #51 ) ;
#97 = COORDINATED_UNIVERSAL_TIME_OFFSET ( 5, 0, .BEHIND. ) ;
#98 = EDGE_LOOP ( 'NONE', ( #31 ) ) ;
#99 = CIRCLE ( 'NONE', #96, 2.165000000000000000 ) ;
#100 = CARTESIAN_POINT ( 'NONE',  ( 0.0000000000000000000, 0.0000000000000000000, 0.0000000000000000000 ) ) ;
#101 = PERSON_AND_ORGANIZATION ( #21, #248 ) ;
#102 = CC_DESIGN_APPROVAL ( #74, ( #22 ) ) ;
#103 = DIRECTION ( 'NONE',  ( 1.000000000000000000, 0.0000000000000000000, 0.0000000000000000000 ) ) ;
#104 = CIRCLE ( 'NONE', #147, 1.890000000000000100 ) ;
#105 = CARTESIAN_POINT ( 'NONE',  ( 0.0000000000000000000, 0.0000000000000000000, -0.5410424171990803100 ) ) ;
#106 =( GEOMETRIC_REPRESENTATION_CONTEXT ( 3 ) GLOBAL_UNCERTAINTY_ASSIGNED_CONTEXT ( ( #268 ) ) GLOBAL_UNIT_ASSIGNED_CONTEXT ( ( #247, #295, #8 ) ) REPRESENTATION_CONTEXT ( 'NONE', 'WORKASPACE' ) );
#107 = DIRECTION ( 'NONE',  ( -0.0000000000000000000, -0.0000000000000000000, 1.000000000000000000 ) ) ;
#108 = EDGE_CURVE ( 'NONE', #180, #180, #10, .T. ) ;
#109 = DIRECTION ( 'NONE',  ( -1.000000000000000000, 0.0000000000000000000, -0.0000000000000000000 ) ) ;
#110 = CARTESIAN_POINT ( 'NONE',  ( 0.0000000000000000000, 0.0000000000000000000, -1.750000000000000200 ) ) ;
#111 = EDGE_LOOP ( 'NONE', ( #219 ) ) ;
#112 = VERTEX_POINT ( 'NONE', #258 ) ;
#113 = MANIFOLD_SOLID_BREP ( 'Revolve1', #24 ) ;
#114 = CARTESIAN_POINT ( 'NONE',  ( 1.770999999999999700, 0.0000000000000000000, -0.5000000000000001100 ) ) ;
#115 = ADVANCED_FACE ( 'NONE', ( #140, #66 ), #3, .F. ) ;
#116 = AXIS2_PLACEMENT_3D ( 'NONE', #241, #107, #162 ) ;
#117 = CIRCLE ( 'NONE', #19, 1.770000000000000000 ) ;
#118 = CARTESIAN_POINT ( 'NONE',  ( 0.0000000000000000000, 0.0000000000000000000, 1.889664804469273200 ) ) ;
#119 = APPROVAL_STATUS ( 'not_yet_approved' ) ;
#120 = ORIENTED_EDGE ( 'NONE', *, *, #108, .T. ) ;
#121 = FACE_OUTER_BOUND ( 'NONE', #239, .T. ) ;
#122 = CYLINDRICAL_SURFACE ( 'NONE', #215, 2.165000000000000000 ) ;
#123 = PERSON_AND_ORGANIZATION ( #21, #248 ) ;
#124 = AXIS2_PLACEMENT_3D ( 'NONE', #33, #191, #6 ) ;
#125 = EDGE_LOOP ( 'NONE', ( #44 ) ) ;
#126 = EDGE_LOOP ( 'NONE', ( #120 ) ) ;
#127 = AXIS2_PLACEMENT_3D ( 'NONE', #25, #181, #329 ) ;
#128 = CARTESIAN_POINT ( 'NONE',  ( 0.0000000000000000000, 0.0000000000000000000, -0.5000000000000001100 ) ) ;
#129 = FACE_OUTER_BOUND ( 'NONE', #111, .T. ) ;
#130 = DIRECTION ( 'NONE',  ( -0.0000000000000000000, -0.0000000000000000000, 1.000000000000000000 ) ) ;
#131 = DIRECTION ( 'NONE',  ( -0.0000000000000000000, -0.0000000000000000000, 1.000000000000000000 ) ) ;
#132 = LOCAL_TIME ( 14, 43, 30.00000000000000000, #13 ) ;
#133 = EDGE_LOOP ( 'NONE', ( #87 ) ) ;
#134 = DIRECTION ( 'NONE',  ( 1.000000000000000000, 0.0000000000000000000, 0.0000000000000000000 ) ) ;
#135 = DIRECTION ( 'NONE',  ( -0.0000000000000000000, -0.0000000000000000000, 1.000000000000000000 ) ) ;
#136 = ORIENTED_EDGE ( 'NONE', *, *, #283, .F. ) ;
#137 = ADVANCED_FACE ( 'NONE', ( #157, #82 ), #4, .F. ) ;
#138 = CARTESIAN_POINT ( 'NONE',  ( 1.446999999999999600, 0.0000000000000000000, -1.432501159273327000 ) ) ;
#139 = DIRECTION ( 'NONE',  ( 1.000000000000000000, 0.0000000000000000000, 0.0000000000000000000 ) ) ;
#140 = FACE_BOUND ( 'NONE', #324, .T. ) ;
#141 = PRODUCT_DEFINITION_SHAPE ( 'NONE', 'NONE',  #271 ) ;
#142 = SECURITY_CLASSIFICATION_LEVEL ( 'unclassified' ) ;
#143 = EDGE_CURVE ( 'NONE', #50, #50, #148, .T. ) ;
#144 = TOROIDAL_SURFACE ( 'NONE', #182, 2.044999999999999900, 0.1200000000000000900 ) ;
#145 = CIRCLE ( 'NONE', #124, 1.770000000000000000 ) ;
#146 = EDGE_LOOP ( 'NONE', ( #15 ) ) ;
#147 = AXIS2_PLACEMENT_3D ( 'NONE', #259, #76, #236 ) ;
#148 = CIRCLE ( 'NONE', #26, 2.165000000000000000 ) ;
#149 = EDGE_LOOP ( 'NONE', ( #199 ) ) ;
#150 = ORIENTED_EDGE ( 'NONE', *, *, #1, .F. ) ;
#151 = DIRECTION ( 'NONE',  ( 1.000000000000000000, 0.0000000000000000000, 0.0000000000000000000 ) ) ;
#152 = DIRECTION ( 'NONE',  ( -0.0000000000000000000, -0.0000000000000000000, 1.000000000000000000 ) ) ;
#153 = LOCAL_TIME ( 14, 43, 30.00000000000000000, #229 ) ;
#154 = CC_DESIGN_PERSON_AND_ORGANIZATION_ASSIGNMENT ( #101, #171, ( #256 ) ) ;
#155 = PLANE ( 'NONE',  #169 ) ;
#156 = DIRECTION ( 'NONE',  ( -0.0000000000000000000, -0.0000000000000000000, 1.000000000000000000 ) ) ;
#157 = FACE_OUTER_BOUND ( 'NONE', #98, .T. ) ;
#158 = EDGE_CURVE ( 'NONE', #315, #315, #225, .T. ) ;
#159 = CARTESIAN_POINT ( 'NONE',  ( 0.0000000000000000000, 0.0000000000000000000, -1.432501159273327000 ) ) ;
#160 = CALENDAR_DATE ( 2017, 31, 7 ) ;
#161 = CARTESIAN_POINT ( 'NONE',  ( 0.0000000000000000000, 0.0000000000000000000, 1.889664804469273200 ) ) ;
#162 = DIRECTION ( 'NONE',  ( 1.000000000000000000, 0.0000000000000000000, 0.0000000000000000000 ) ) ;
#163 = ADVANCED_FACE ( 'NONE', ( #230, #213 ), #14, .T. ) ;
#164 = ORIENTED_EDGE ( 'NONE', *, *, #143, .T. ) ;
#165 = VERTEX_POINT ( 'NONE', #114 ) ;
#166 = CALENDAR_DATE ( 2017, 31, 7 ) ;
#167 = DIMENSIONAL_EXPONENTS ( 1.000000000000000000, 0.0000000000000000000, 0.0000000000000000000, 0.0000000000000000000, 0.0000000000000000000, 0.0000000000000000000, 0.0000000000000000000 ) ;
#168 = PERSON_AND_ORGANIZATION_ROLE ( 'creator' ) ;
#169 = AXIS2_PLACEMENT_3D ( 'NONE', #28, #260, #78 ) ;
#170 = DIRECTION ( 'NONE',  ( 1.000000000000000000, 0.0000000000000000000, 0.0000000000000000000 ) ) ;
#171 = PERSON_AND_ORGANIZATION_ROLE ( 'design_supplier' ) ;
#172 = LOCAL_TIME ( 14, 43, 30.00000000000000000, #97 ) ;
#173 = ORIENTED_EDGE ( 'NONE', *, *, #20, .F. ) ;
#174 = SHAPE_DEFINITION_REPRESENTATION ( #141, #16 ) ;
#175 = PERSON_AND_ORGANIZATION ( #21, #248 ) ;
#176 = APPROVAL_PERSON_ORGANIZATION ( #218, #185, #90 ) ;
#177 = ORIENTED_EDGE ( 'NONE', *, *, #71, .T. ) ;
#178 = ORIENTED_EDGE ( 'NONE', *, *, #323, .T. ) ;
#179 = APPROVAL_DATE_TIME ( #58, #302 ) ;
#180 = VERTEX_POINT ( 'NONE', #138 ) ;
#181 = DIRECTION ( 'NONE',  ( -0.0000000000000000000, -0.0000000000000000000, 1.000000000000000000 ) ) ;
#182 = AXIS2_PLACEMENT_3D ( 'NONE', #184, #156, #80 ) ;
#183 = FACE_OUTER_BOUND ( 'NONE', #226, .T. ) ;
#184 = CARTESIAN_POINT ( 'NONE',  ( 0.0000000000000000000, 0.0000000000000000000, -1.630000000000000100 ) ) ;
#185 = APPROVAL ( #119, 'UNSPECIFIED' ) ;
#186 = DIRECTION ( 'NONE',  ( 1.000000000000000000, 0.0000000000000000000, 0.0000000000000000000 ) ) ;
#187 = CARTESIAN_POINT ( 'NONE',  ( 0.0000000000000000000, 0.0000000000000000000, 1.889664804469273200 ) ) ;
#188 = DIRECTION ( 'NONE',  ( 1.000000000000000000, 0.0000000000000000000, 0.0000000000000000000 ) ) ;
#189 = VERTEX_POINT ( 'NONE', #194 ) ;
#190 = ADVANCED_FACE ( 'NONE', ( #92, #274 ), #144, .T. ) ;
#191 = DIRECTION ( 'NONE',  ( -0.0000000000000000000, -0.0000000000000000000, 1.000000000000000000 ) ) ;
#192 = APPLICATION_CONTEXT ( 'configuration controlled 3d designs of mechanical parts and assemblies' ) ;
#193 = COORDINATED_UNIVERSAL_TIME_OFFSET ( 5, 0, .BEHIND. ) ;
#194 = CARTESIAN_POINT ( 'NONE',  ( 2.165000000000000000, 0.0000000000000000000, 0.0000000000000000000 ) ) ;
#195 = FACE_OUTER_BOUND ( 'NONE', #257, .T. ) ;
#196 = APPROVAL_STATUS ( 'not_yet_approved' ) ;
#197 = CALENDAR_DATE ( 2017, 31, 7 ) ;
#198 = AXIS2_PLACEMENT_3D ( 'NONE', #85, #240, #217 ) ;
#199 = ORIENTED_EDGE ( 'NONE', *, *, #323, .F. ) ;
#200 = VERTEX_POINT ( 'NONE', #293 ) ;
#201 = ORIENTED_EDGE ( 'NONE', *, *, #270, .T. ) ;
#202 = AXIS2_PLACEMENT_3D ( 'NONE', #110, #263, #83 ) ;
#203 = FACE_OUTER_BOUND ( 'NONE', #327, .T. ) ;
#204 = CC_DESIGN_DATE_AND_TIME_ASSIGNMENT ( #205, #269, ( #271 ) ) ;
#205 = DATE_AND_TIME ( #197, #132 ) ;
#206 = CARTESIAN_POINT ( 'NONE',  ( 2.044999999999999900, 0.0000000000000000000, -1.750000000000000200 ) ) ;
#207 = CARTESIAN_POINT ( 'NONE',  ( 1.770000000000000000, 0.0000000000000000000, -1.870000000000000100 ) ) ;
#208 = DIRECTION ( 'NONE',  ( -0.0000000000000000000, -0.0000000000000000000, 1.000000000000000000 ) ) ;
#209 = LOCAL_TIME ( 14, 43, 30.00000000000000000, #193 ) ;
#210 = CARTESIAN_POINT ( 'NONE',  ( 0.0000000000000000000, 0.0000000000000000000, -1.870000000000000100 ) ) ;
#211 = DIRECTION ( 'NONE',  ( 1.000000000000000000, 0.0000000000000000000, 0.0000000000000000000 ) ) ;
#212 = DIRECTION ( 'NONE',  ( -0.0000000000000000000, -0.0000000000000000000, 1.000000000000000000 ) ) ;
#213 = FACE_OUTER_BOUND ( 'NONE', #289, .T. ) ;
#214 = LENGTH_MEASURE_WITH_UNIT ( LENGTH_MEASURE( 0.02539999999999999900 ), #318 );
#215 = AXIS2_PLACEMENT_3D ( 'NONE', #118, #89, #59 ) ;
#216 = CARTESIAN_POINT ( 'NONE',  ( 0.0000000000000000000, 1.771000000000000400, 0.0000000000000000000 ) ) ;
#217 = DIRECTION ( 'NONE',  ( 1.000000000000000000, 0.0000000000000000000, 0.0000000000000000000 ) ) ;
#218 = PERSON_AND_ORGANIZATION ( #21, #248 ) ;
#219 = ORIENTED_EDGE ( 'NONE', *, *, #71, .F. ) ;
#220 = ADVANCED_FACE ( 'NONE', ( #297, #29 ), #64, .F. ) ;
#221 = PERSON_AND_ORGANIZATION_ROLE ( 'design_owner' ) ;
#222 = AXIS2_PLACEMENT_3D ( 'NONE', #287, #30, #188 ) ;
#223 = CARTESIAN_POINT ( 'NONE',  ( 1.890000000000000100, 0.0000000000000000000, -1.750000000000000200 ) ) ;
#224 = CC_DESIGN_APPROVAL ( #302, ( #271 ) ) ;
#225 = CIRCLE ( 'NONE', #292, 1.454236885505690600 ) ;
#226 = EDGE_LOOP ( 'NONE', ( #23 ) ) ;
#227 = EDGE_LOOP ( 'NONE', ( #232 ) ) ;
#228 = ORIENTED_EDGE ( 'NONE', *, *, #283, .T. ) ;
#229 = COORDINATED_UNIVERSAL_TIME_OFFSET ( 5, 0, .BEHIND. ) ;
#230 = FACE_OUTER_BOUND ( 'NONE', #73, .T. ) ;
#231 = PRODUCT ( '581207422', '581207422', '', ( #244 ) ) ;
#232 = ORIENTED_EDGE ( 'NONE', *, *, #20, .T. ) ;
#233 = DIRECTION ( 'NONE',  ( -0.0000000000000000000, -0.0000000000000000000, 1.000000000000000000 ) ) ;
#234 = VERTEX_POINT ( 'NONE', #291 ) ;
#235 = PRODUCT_RELATED_PRODUCT_CATEGORY ( 'detail', '', ( #231 ) ) ;
#236 = DIRECTION ( 'NONE',  ( 1.000000000000000000, 0.0000000000000000000, 0.0000000000000000000 ) ) ;
#237 = LOCAL_TIME ( 14, 43, 30.00000000000000000, #299 ) ;
#238 = CARTESIAN_POINT ( 'NONE',  ( 0.0000000000000000000, 0.0000000000000000000, -1.391458742074246600 ) ) ;
#239 = EDGE_LOOP ( 'NONE', ( #303 ) ) ;
#240 = DIRECTION ( 'NONE',  ( -0.0000000000000000000, -0.0000000000000000000, 1.000000000000000000 ) ) ;
#241 = CARTESIAN_POINT ( 'NONE',  ( 0.0000000000000000000, 0.0000000000000000000, -0.5000000000000000000 ) ) ;
#242 = ADVANCED_FACE ( 'NONE', ( #47, #272 ), #246, .F. ) ;
#243 = APPROVAL_DATE_TIME ( #308, #185 ) ;
#244 = MECHANICAL_CONTEXT ( 'NONE', #39, 'mechanical' ) ;
#245 = DIRECTION ( 'NONE',  ( -0.0000000000000000000, -0.0000000000000000000, 1.000000000000000000 ) ) ;
#246 = TOROIDAL_SURFACE ( 'NONE', #53, 1.890000000000000100, 0.1199999999999999500 ) ;
#247 =( CONVERSION_BASED_UNIT ( 'INCH', #214 ) LENGTH_UNIT ( ) NAMED_UNIT ( #167 ) );
#248 = ORGANIZATION ( 'UNSPECIFIED', 'UNSPECIFIED', '' ) ;
#249 = AXIS2_PLACEMENT_3D ( 'NONE', #65, #245, #139 ) ;
#250 = FACE_OUTER_BOUND ( 'NONE', #149, .T. ) ;
#251 = VERTEX_POINT ( 'NONE', #206 ) ;
#252 = CC_DESIGN_APPROVAL ( #185, ( #256 ) ) ;
#253 = FACE_OUTER_BOUND ( 'NONE', #133, .T. ) ;
#254 = AXIS2_PLACEMENT_3D ( 'NONE', #100, #37, #170 ) ;
#255 = CIRCLE ( 'NONE', #198, 1.771000000000000400 ) ;
#256 = PRODUCT_DEFINITION_FORMATION_WITH_SPECIFIED_SOURCE ( 'ANY', '', #231, .NOT_KNOWN. ) ;
#257 = EDGE_LOOP ( 'NONE', ( #164 ) ) ;
#258 = CARTESIAN_POINT ( 'NONE',  ( 1.771000000000000400, 0.0000000000000000000, 0.0000000000000000000 ) ) ;
#259 = CARTESIAN_POINT ( 'NONE',  ( 0.0000000000000000000, 0.0000000000000000000, -1.750000000000000200 ) ) ;
#260 = DIRECTION ( 'NONE',  ( 0.0000000000000000000, -0.0000000000000000000, 1.000000000000000000 ) ) ;
#261 = PERSON_AND_ORGANIZATION ( #21, #248 ) ;
#262 = EDGE_CURVE ( 'NONE', #165, #165, #311, .T. ) ;
#263 = DIRECTION ( 'NONE',  ( -0.0000000000000000000, -0.0000000000000000000, 1.000000000000000000 ) ) ;
#264 = VERTEX_POINT ( 'NONE', #223 ) ;
#265 = CIRCLE ( 'NONE', #249, 1.763763114494308900 ) ;
#266 = ADVANCED_FACE ( 'NONE', ( #183, #319 ), #155, .F. ) ;
#267 = CARTESIAN_POINT ( 'NONE',  ( 1.454236885505690600, 0.0000000000000000000, -1.391458742074246600 ) ) ;
#268 = UNCERTAINTY_MEASURE_WITH_UNIT (LENGTH_MEASURE( 1.000000000000000100E-005 ), #247, 'distance_accuracy_value', 'NONE');
#269 = DATE_TIME_ROLE ( 'creation_date' ) ;
#270 = EDGE_CURVE ( 'NONE', #234, #234, #117, .T. ) ;
#271 = PRODUCT_DEFINITION ( 'UNKNOWN', '', #256, #41 ) ;
#272 = FACE_OUTER_BOUND ( 'NONE', #227, .T. ) ;
#273 = FACE_OUTER_BOUND ( 'NONE', #126, .T. ) ;
#274 = FACE_OUTER_BOUND ( 'NONE', #305, .T. ) ;
#275 = EDGE_CURVE ( 'NONE', #264, #264, #104, .T. ) ;
#276 = EDGE_LOOP ( 'NONE', ( #228 ) ) ;
#277 = EDGE_LOOP ( 'NONE', ( #178 ) ) ;
#278 = CARTESIAN_POINT ( 'NONE',  ( 1.763763114494308900, 0.0000000000000000000, -0.5410424171990803100 ) ) ;
#279 = APPROVAL_DATE_TIME ( #18, #74 ) ;
#280 = DIRECTION ( 'NONE',  ( -0.0000000000000000000, -0.0000000000000000000, 1.000000000000000000 ) ) ;
#281 = AXIS2_PLACEMENT_3D ( 'NONE', #105, #130, #282 ) ;
#282 = DIRECTION ( 'NONE',  ( 1.000000000000000000, 0.0000000000000000000, 0.0000000000000000000 ) ) ;
#283 = EDGE_CURVE ( 'NONE', #200, #200, #301, .T. ) ;
#284 = DIRECTION ( 'NONE',  ( 1.000000000000000000, 0.0000000000000000000, 0.0000000000000000000 ) ) ;
#285 = CC_DESIGN_PERSON_AND_ORGANIZATION_ASSIGNMENT ( #306, #168, ( #271 ) ) ;
#286 = DIRECTION ( 'NONE',  ( 0.0000000000000000000, 0.0000000000000000000, -1.000000000000000000 ) ) ;
#287 = CARTESIAN_POINT ( 'NONE',  ( 0.0000000000000000000, 2.044999999999999900, -1.750000000000000200 ) ) ;
#288 = ADVANCED_FACE ( 'NONE', ( #253, #121 ), #38, .T. ) ;
#289 = EDGE_LOOP ( 'NONE', ( #201 ) ) ;
#290 = ORIENTED_EDGE ( 'NONE', *, *, #262, .T. ) ;
#291 = CARTESIAN_POINT ( 'NONE',  ( 1.770000000000000000, 0.0000000000000000000, -3.000000000000000400 ) ) ;
#292 = AXIS2_PLACEMENT_3D ( 'NONE', #238, #55, #211 ) ;
#293 = CARTESIAN_POINT ( 'NONE',  ( 1.446999999999999800, 0.0000000000000000000, -3.000000000000000400 ) ) ;
#294 = APPROVAL_PERSON_ORGANIZATION ( #27, #74, #42 ) ;
#295 =( NAMED_UNIT ( * ) PLANE_ANGLE_UNIT ( ) SI_UNIT ( $, .RADIAN. ) );
#296 = PERSON_AND_ORGANIZATION_ROLE ( 'creator' ) ;
#297 = FACE_BOUND ( 'NONE', #68, .T. ) ;
#298 = ORIENTED_EDGE ( 'NONE', *, *, #143, .F. ) ;
#299 = COORDINATED_UNIVERSAL_TIME_OFFSET ( 5, 0, .BEHIND. ) ;
#300 = CC_DESIGN_SECURITY_CLASSIFICATION ( #22, ( #256 ) ) ;
#301 = CIRCLE ( 'NONE', #127, 1.446999999999999800 ) ;
#302 = APPROVAL ( #35, 'UNSPECIFIED' ) ;
#303 = ORIENTED_EDGE ( 'NONE', *, *, #158, .T. ) ;
#304 = CC_DESIGN_DATE_AND_TIME_ASSIGNMENT ( #95, #12, ( #22 ) ) ;
#305 = EDGE_LOOP ( 'NONE', ( #177 ) ) ;
#306 = PERSON_AND_ORGANIZATION ( #21, #248 ) ;
#307 = VERTEX_POINT ( 'NONE', #278 ) ;
#308 = DATE_AND_TIME ( #46, #209 ) ;
#309 = AXIS2_PLACEMENT_3D ( 'NONE', #216, #286, #109 ) ;
#310 = DIRECTION ( 'NONE',  ( 1.000000000000000000, 0.0000000000000000000, 0.0000000000000000000 ) ) ;
#311 = CIRCLE ( 'NONE', #40, 1.770999999999999700 ) ;
#312 = DIRECTION ( 'NONE',  ( 1.000000000000000000, 0.0000000000000000000, 0.0000000000000000000 ) ) ;
#313 = CARTESIAN_POINT ( 'NONE',  ( 0.0000000000000000000, 0.0000000000000000000, -1.630000000000000300 ) ) ;
#314 = DIRECTION ( 'NONE',  ( -0.0000000000000000000, -0.0000000000000000000, 1.000000000000000000 ) ) ;
#315 = VERTEX_POINT ( 'NONE', #267 ) ;
#316 = PLANE ( 'NONE',  #222 ) ;
#317 = CC_DESIGN_PERSON_AND_ORGANIZATION_ASSIGNMENT ( #175, #296, ( #256 ) ) ;
#318 =( LENGTH_UNIT ( ) NAMED_UNIT ( * ) SI_UNIT ( $, .METRE. ) );
#319 = FACE_BOUND ( 'NONE', #276, .T. ) ;
#320 = CARTESIAN_POINT ( 'NONE',  ( 2.165000000000000000, 0.0000000000000000000, -1.630000000000000300 ) ) ;
#321 = PERSON_AND_ORGANIZATION_ROLE ( 'classification_officer' ) ;
#322 = FACE_OUTER_BOUND ( 'NONE', #94, .T. ) ;
#323 = EDGE_CURVE ( 'NONE', #189, #189, #99, .T. ) ;
#324 = EDGE_LOOP ( 'NONE', ( #17 ) ) ;
#325 = AXIS2_PLACEMENT_3D ( 'NONE', #159, #314, #134 ) ;
#326 = FACE_BOUND ( 'NONE', #146, .T. ) ;
#327 = EDGE_LOOP ( 'NONE', ( #290 ) ) ;
#328 = ORIENTED_EDGE ( 'NONE', *, *, #43, .T. ) ;
#329 = DIRECTION ( 'NONE',  ( 1.000000000000000000, 0.0000000000000000000, 0.0000000000000000000 ) ) ;
#330 = CARTESIAN_POINT ( 'NONE',  ( 0.0000000000000000000, 0.0000000000000000000, -3.000000000000000400 ) ) ;
#331 = FACE_OUTER_BOUND ( 'NONE', #93, .T. ) ;
#332 = AXIS2_PLACEMENT_3D ( 'NONE', #187, #56, #81 ) ;
ENDSEC;
END-ISO-10303-21;
