ISO-10303-21;
HEADER;
FILE_DESCRIPTION (( 'STEP AP203' ),
    '1' );
FILE_NAME ('581207420.STEP',
    '2017-07-31T18:40:55',
    ( '' ),
    ( '' ),
    'SwSTEP 2.0',
    'SolidWorks 2017',
    '' );
FILE_SCHEMA (( 'CONFIG_CONTROL_DESIGN' ));
ENDSEC;

DATA;
#1 = EDGE_LOOP ( 'NONE', ( #182 ) ) ;
#2 = ADVANCED_FACE ( 'NONE', ( #158, #53 ), #183, .F. ) ;
#3 = CC_DESIGN_DATE_AND_TIME_ASSIGNMENT ( #246, #113, ( #174 ) ) ;
#4 = ORIENTED_EDGE ( 'NONE', *, *, #33, .F. ) ;
#5 = ADVANCED_FACE ( 'NONE', ( #94, #285 ), #24, .F. ) ;
#6 = AXIS2_PLACEMENT_3D ( 'NONE', #258, #290, #143 ) ;
#7 = CALENDAR_DATE ( 2017, 31, 7 ) ;
#8 = CARTESIAN_POINT ( 'NONE',  ( 1.239999999999999500, 0.0000000000000000000, -1.870000000000000600 ) ) ;
#9 = DIRECTION ( 'NONE',  ( -1.000000000000000000, 0.0000000000000000000, -0.0000000000000000000 ) ) ;
#10 = CC_DESIGN_APPROVAL ( #184, ( #235 ) ) ;
#11 = DIRECTION ( 'NONE',  ( 1.000000000000000000, 0.0000000000000000000, 0.0000000000000000000 ) ) ;
#12 =( CONVERSION_BASED_UNIT ( 'INCH', #59 ) LENGTH_UNIT ( ) NAMED_UNIT ( #107 ) );
#13 = TOROIDAL_SURFACE ( 'NONE', #165, 1.651000000000000000, 0.1199999999999999500 ) ;
#14 = DIRECTION ( 'NONE',  ( -0.0000000000000000000, -0.0000000000000000000, 1.000000000000000000 ) ) ;
#15 = FACE_OUTER_BOUND ( 'NONE', #187, .T. ) ;
#16 = CARTESIAN_POINT ( 'NONE',  ( 0.0000000000000000000, 1.771000000000000400, 0.0000000000000000000 ) ) ;
#17 = CARTESIAN_POINT ( 'NONE',  ( 0.0000000000000000000, 0.0000000000000000000, -0.5000000000000001100 ) ) ;
#18 = CARTESIAN_POINT ( 'NONE',  ( 0.0000000000000000000, 0.0000000000000000000, -3.000000000000000400 ) ) ;
#19 = PRODUCT ( '581207420', '581207420', '', ( #301 ) ) ;
#20 = ADVANCED_BREP_SHAPE_REPRESENTATION ( '581207420', ( #244, #119 ), #150 ) ;
#21 = VERTEX_POINT ( 'NONE', #96 ) ;
#22 =( LENGTH_UNIT ( ) NAMED_UNIT ( * ) SI_UNIT ( $, .METRE. ) );
#23 = FACE_OUTER_BOUND ( 'NONE', #178, .T. ) ;
#24 = PLANE ( 'NONE',  #254 ) ;
#25 = CC_DESIGN_APPROVAL ( #86, ( #174 ) ) ;
#26 = EDGE_LOOP ( 'NONE', ( #83 ) ) ;
#27 = CARTESIAN_POINT ( 'NONE',  ( 0.0000000000000000000, 0.0000000000000000000, 0.0000000000000000000 ) ) ;
#28 = VERTEX_POINT ( 'NONE', #152 ) ;
#29 = PLANE ( 'NONE',  #332 ) ;
#30 = ORIENTED_EDGE ( 'NONE', *, *, #127, .F. ) ;
#31 = ORIENTED_EDGE ( 'NONE', *, *, #219, .T. ) ;
#32 = FACE_OUTER_BOUND ( 'NONE', #249, .T. ) ;
#33 = EDGE_CURVE ( 'NONE', #213, #213, #271, .T. ) ;
#34 = DIRECTION ( 'NONE',  ( -0.0000000000000000000, -0.0000000000000000000, 1.000000000000000000 ) ) ;
#35 = CC_DESIGN_PERSON_AND_ORGANIZATION_ASSIGNMENT ( #236, #326, ( #257 ) ) ;
#36 = CARTESIAN_POINT ( 'NONE',  ( 0.0000000000000000000, 0.0000000000000000000, 0.0000000000000000000 ) ) ;
#37 = ORIENTED_EDGE ( 'NONE', *, *, #311, .F. ) ;
#38 = PERSON_AND_ORGANIZATION ( #189, #76 ) ;
#39 = CC_DESIGN_PERSON_AND_ORGANIZATION_ASSIGNMENT ( #232, #128, ( #235 ) ) ;
#40 = DIRECTION ( 'NONE',  ( 1.000000000000000000, 0.0000000000000000000, 0.0000000000000000000 ) ) ;
#41 = CONICAL_SURFACE ( 'NONE', #248, 1.742925333174277300, 0.6981317007977332300 ) ;
#42 = CIRCLE ( 'NONE', #167, 1.012000000000000000 ) ;
#43 = DIRECTION ( 'NONE',  ( 1.000000000000000000, 0.0000000000000000000, 0.0000000000000000000 ) ) ;
#44 = VERTEX_POINT ( 'NONE', #73 ) ;
#45 = DATE_AND_TIME ( #169, #157 ) ;
#46 = ORIENTED_EDGE ( 'NONE', *, *, #226, .F. ) ;
#47 = ORIENTED_EDGE ( 'NONE', *, *, #226, .T. ) ;
#48 = DIRECTION ( 'NONE',  ( 0.0000000000000000000, 0.0000000000000000000, -1.000000000000000000 ) ) ;
#49 = FACE_OUTER_BOUND ( 'NONE', #286, .T. ) ;
#50 = COORDINATED_UNIVERSAL_TIME_OFFSET ( 5, 0, .BEHIND. ) ;
#51 = TOROIDAL_SURFACE ( 'NONE', #214, 2.044999999999999900, 0.1200000000000002200 ) ;
#52 = LOCAL_TIME ( 14, 40, 55.00000000000000000, #243 ) ;
#53 = FACE_BOUND ( 'NONE', #144, .T. ) ;
#54 = CARTESIAN_POINT ( 'NONE',  ( 0.0000000000000000000, 0.0000000000000000000, -3.000000000000000400 ) ) ;
#55 = AXIS2_PLACEMENT_3D ( 'NONE', #317, #186, #181 ) ;
#56 = VERTEX_POINT ( 'NONE', #312 ) ;
#57 = EDGE_CURVE ( 'NONE', #122, #122, #84, .T. ) ;
#58 = CARTESIAN_POINT ( 'NONE',  ( 1.240000000000000000, 0.0000000000000000000, -3.000000000000000400 ) ) ;
#59 = LENGTH_MEASURE_WITH_UNIT ( LENGTH_MEASURE( 0.02539999999999999900 ), #22 );
#60 = DIRECTION ( 'NONE',  ( 0.0000000000000000000, -0.0000000000000000000, 1.000000000000000000 ) ) ;
#61 = DIRECTION ( 'NONE',  ( -0.0000000000000000000, -0.0000000000000000000, 1.000000000000000000 ) ) ;
#62 = EDGE_LOOP ( 'NONE', ( #289 ) ) ;
#63 = EDGE_LOOP ( 'NONE', ( #304 ) ) ;
#64 = ADVANCED_FACE ( 'NONE', ( #15, #209 ), #309, .F. ) ;
#65 = CC_DESIGN_DATE_AND_TIME_ASSIGNMENT ( #215, #177, ( #235 ) ) ;
#66 = DIRECTION ( 'NONE',  ( 1.000000000000000000, 0.0000000000000000000, 0.0000000000000000000 ) ) ;
#67 = FACE_OUTER_BOUND ( 'NONE', #1, .T. ) ;
#68 = CARTESIAN_POINT ( 'NONE',  ( 0.0000000000000000000, 2.044999999999999900, -1.750000000000000200 ) ) ;
#69 = ORIENTED_EDGE ( 'NONE', *, *, #156, .T. ) ;
#70 = ORIENTED_EDGE ( 'NONE', *, *, #57, .F. ) ;
#71 = CALENDAR_DATE ( 2017, 31, 7 ) ;
#72 = DIRECTION ( 'NONE',  ( -0.0000000000000000000, -0.0000000000000000000, 1.000000000000000000 ) ) ;
#73 = CARTESIAN_POINT ( 'NONE',  ( 1.742925333174277300, 0.0000000000000000000, -0.5771345131623851800 ) ) ;
#74 = CARTESIAN_POINT ( 'NONE',  ( 0.0000000000000000000, 1.240000000000000000, -3.000000000000000400 ) ) ;
#75 = FACE_OUTER_BOUND ( 'NONE', #263, .T. ) ;
#76 = ORGANIZATION ( 'UNSPECIFIED', 'UNSPECIFIED', '' ) ;
#77 = APPROVAL_DATE_TIME ( #131, #184 ) ;
#78 = AXIS2_PLACEMENT_3D ( 'NONE', #74, #60, #89 ) ;
#79 = ORIENTED_EDGE ( 'NONE', *, *, #145, .F. ) ;
#80 = ADVANCED_FACE ( 'NONE', ( #23, #231 ), #250, .F. ) ;
#81 = APPROVAL_ROLE ( '' ) ;
#82 = ORIENTED_EDGE ( 'NONE', *, *, #229, .T. ) ;
#83 = ORIENTED_EDGE ( 'NONE', *, *, #266, .F. ) ;
#84 = CIRCLE ( 'NONE', #224, 2.165000000000000000 ) ;
#85 = DIRECTION ( 'NONE',  ( -0.0000000000000000000, -0.0000000000000000000, 1.000000000000000000 ) ) ;
#86 = APPROVAL ( #109, 'UNSPECIFIED' ) ;
#87 = DIRECTION ( 'NONE',  ( 1.000000000000000000, 0.0000000000000000000, 0.0000000000000000000 ) ) ;
#88 = CARTESIAN_POINT ( 'NONE',  ( 1.359999999999999900, 0.0000000000000000000, -1.750000000000000200 ) ) ;
#89 = DIRECTION ( 'NONE',  ( 1.000000000000000000, 0.0000000000000000000, 0.0000000000000000000 ) ) ;
#90 = CARTESIAN_POINT ( 'NONE',  ( 0.0000000000000000000, 0.0000000000000000000, -0.5771345131623851800 ) ) ;
#91 = CARTESIAN_POINT ( 'NONE',  ( 0.0000000000000000000, 0.0000000000000000000, 1.889664804469273200 ) ) ;
#92 = LOCAL_TIME ( 14, 40, 55.00000000000000000, #121 ) ;
#93 = APPROVAL_ROLE ( '' ) ;
#94 = FACE_BOUND ( 'NONE', #26, .T. ) ;
#95 = COORDINATED_UNIVERSAL_TIME_OFFSET ( 5, 0, .BEHIND. ) ;
#96 = CARTESIAN_POINT ( 'NONE',  ( 1.012000000000000000, 0.0000000000000000000, -3.000000000000000400 ) ) ;
#97 = CARTESIAN_POINT ( 'NONE',  ( 0.0000000000000000000, 0.0000000000000000000, -1.750000000000000200 ) ) ;
#98 = DIRECTION ( 'NONE',  ( -0.0000000000000000000, -0.0000000000000000000, 1.000000000000000000 ) ) ;
#99 = ORIENTED_EDGE ( 'NONE', *, *, #145, .T. ) ;
#100 = CARTESIAN_POINT ( 'NONE',  ( 0.0000000000000000000, 0.0000000000000000000, -0.5771345131623851800 ) ) ;
#101 = DIRECTION ( 'NONE',  ( -0.0000000000000000000, -0.0000000000000000000, 1.000000000000000000 ) ) ;
#102 = APPROVAL_DATE_TIME ( #45, #86 ) ;
#103 = LOCAL_TIME ( 14, 40, 55.00000000000000000, #50 ) ;
#104 = FACE_OUTER_BOUND ( 'NONE', #200, .T. ) ;
#105 = EDGE_LOOP ( 'NONE', ( #268 ) ) ;
#106 = CARTESIAN_POINT ( 'NONE',  ( 0.0000000000000000000, 0.0000000000000000000, -0.5000000000000000000 ) ) ;
#107 = DIMENSIONAL_EXPONENTS ( 1.000000000000000000, 0.0000000000000000000, 0.0000000000000000000, 0.0000000000000000000, 0.0000000000000000000, 0.0000000000000000000, 0.0000000000000000000 ) ;
#108 = APPROVAL_ROLE ( '' ) ;
#109 = APPROVAL_STATUS ( 'not_yet_approved' ) ;
#110 = CARTESIAN_POINT ( 'NONE',  ( 1.771000000000000400, 0.0000000000000000000, 0.0000000000000000000 ) ) ;
#111 = APPROVAL_PERSON_ORGANIZATION ( #38, #184, #81 ) ;
#112 = AXIS2_PLACEMENT_3D ( 'NONE', #149, #72, #11 ) ;
#113 = DATE_TIME_ROLE ( 'classification_date' ) ;
#114 = CARTESIAN_POINT ( 'NONE',  ( 0.0000000000000000000, 0.0000000000000000000, 0.0000000000000000000 ) ) ;
#115 = CARTESIAN_POINT ( 'NONE',  ( 0.0000000000000000000, 0.0000000000000000000, -1.629999999999999900 ) ) ;
#116 = FACE_OUTER_BOUND ( 'NONE', #247, .T. ) ;
#117 = DIRECTION ( 'NONE',  ( -0.0000000000000000000, -0.0000000000000000000, 1.000000000000000000 ) ) ;
#118 = SHAPE_DEFINITION_REPRESENTATION ( #305, #20 ) ;
#119 = AXIS2_PLACEMENT_3D ( 'NONE', #114, #273, #315 ) ;
#120 = CC_DESIGN_APPROVAL ( #331, ( #257 ) ) ;
#121 = COORDINATED_UNIVERSAL_TIME_OFFSET ( 5, 0, .BEHIND. ) ;
#122 = VERTEX_POINT ( 'NONE', #218 ) ;
#123 = VERTEX_POINT ( 'NONE', #88 ) ;
#124 = DATE_AND_TIME ( #314, #159 ) ;
#125 = APPROVAL_STATUS ( 'not_yet_approved' ) ;
#126 = DIRECTION ( 'NONE',  ( 1.000000000000000000, 0.0000000000000000000, 0.0000000000000000000 ) ) ;
#127 = EDGE_CURVE ( 'NONE', #239, #239, #279, .T. ) ;
#128 = PERSON_AND_ORGANIZATION_ROLE ( 'creator' ) ;
#129 = ORIENTED_EDGE ( 'NONE', *, *, #219, .F. ) ;
#130 = CARTESIAN_POINT ( 'NONE',  ( 0.0000000000000000000, 0.0000000000000000000, 1.889664804469273200 ) ) ;
#131 = DATE_AND_TIME ( #132, #52 ) ;
#132 = CALENDAR_DATE ( 2017, 31, 7 ) ;
#133 = AXIS2_PLACEMENT_3D ( 'NONE', #17, #14, #66 ) ;
#134 = CIRCLE ( 'NONE', #237, 1.771000000000000400 ) ;
#135 = CIRCLE ( 'NONE', #262, 1.040074666825722600 ) ;
#136 = AXIS2_PLACEMENT_3D ( 'NONE', #115, #34, #43 ) ;
#137 = EDGE_LOOP ( 'NONE', ( #70 ) ) ;
#138 = CIRCLE ( 'NONE', #308, 2.044999999999999900 ) ;
#139 = PERSON_AND_ORGANIZATION ( #189, #76 ) ;
#140 = FACE_OUTER_BOUND ( 'NONE', #253, .T. ) ;
#141 = ORIENTED_EDGE ( 'NONE', *, *, #272, .F. ) ;
#142 = APPROVAL_STATUS ( 'not_yet_approved' ) ;
#143 = DIRECTION ( 'NONE',  ( 1.000000000000000000, 0.0000000000000000000, 0.0000000000000000000 ) ) ;
#144 = EDGE_LOOP ( 'NONE', ( #238 ) ) ;
#145 = EDGE_CURVE ( 'NONE', #44, #44, #245, .T. ) ;
#146 = APPLICATION_CONTEXT ( 'configuration controlled 3d designs of mechanical parts and assemblies' ) ;
#147 = FACE_OUTER_BOUND ( 'NONE', #325, .T. ) ;
#148 = DESIGN_CONTEXT ( 'detailed design', #146, 'design' ) ;
#149 = CARTESIAN_POINT ( 'NONE',  ( 0.0000000000000000000, 0.0000000000000000000, -1.491893833002892100 ) ) ;
#150 =( GEOMETRIC_REPRESENTATION_CONTEXT ( 3 ) GLOBAL_UNCERTAINTY_ASSIGNED_CONTEXT ( ( #282 ) ) GLOBAL_UNIT_ASSIGNED_CONTEXT ( ( #12, #329, #298 ) ) REPRESENTATION_CONTEXT ( 'NONE', 'WORKASPACE' ) );
#151 = ADVANCED_FACE ( 'NONE', ( #288, #67 ), #13, .F. ) ;
#152 = CARTESIAN_POINT ( 'NONE',  ( 2.165000000000000000, 0.0000000000000000000, -1.629999999999999900 ) ) ;
#153 = DIRECTION ( 'NONE',  ( 1.000000000000000000, 0.0000000000000000000, 0.0000000000000000000 ) ) ;
#154 = FACE_OUTER_BOUND ( 'NONE', #207, .T. ) ;
#155 = EDGE_LOOP ( 'NONE', ( #99 ) ) ;
#156 = EDGE_CURVE ( 'NONE', #123, #123, #261, .T. ) ;
#157 = LOCAL_TIME ( 14, 40, 55.00000000000000000, #95 ) ;
#158 = FACE_OUTER_BOUND ( 'NONE', #62, .T. ) ;
#159 = LOCAL_TIME ( 14, 40, 55.00000000000000000, #276 ) ;
#160 = FACE_BOUND ( 'NONE', #255, .T. ) ;
#161 = CIRCLE ( 'NONE', #269, 1.240000000000000000 ) ;
#162 = PERSON_AND_ORGANIZATION_ROLE ( 'classification_officer' ) ;
#163 = APPROVAL_PERSON_ORGANIZATION ( #322, #331, #93 ) ;
#164 = CC_DESIGN_PERSON_AND_ORGANIZATION_ASSIGNMENT ( #208, #319, ( #19 ) ) ;
#165 = AXIS2_PLACEMENT_3D ( 'NONE', #106, #179, #275 ) ;
#166 = EDGE_LOOP ( 'NONE', ( #82 ) ) ;
#167 = AXIS2_PLACEMENT_3D ( 'NONE', #54, #98, #197 ) ;
#168 = APPLICATION_PROTOCOL_DEFINITION ( 'international standard', 'config_control_design', 1994, #299 ) ;
#169 = CALENDAR_DATE ( 2017, 31, 7 ) ;
#170 = EDGE_LOOP ( 'NONE', ( #69 ) ) ;
#171 = APPLICATION_PROTOCOL_DEFINITION ( 'international standard', 'config_control_design', 1994, #146 ) ;
#172 = VERTEX_POINT ( 'NONE', #295 ) ;
#173 = DIRECTION ( 'NONE',  ( -0.0000000000000000000, -0.0000000000000000000, 1.000000000000000000 ) ) ;
#174 = SECURITY_CLASSIFICATION ( '', '', #222 ) ;
#175 = ORIENTED_EDGE ( 'NONE', *, *, #296, .F. ) ;
#176 = ADVANCED_FACE ( 'NONE', ( #140, #204 ), #267, .F. ) ;
#177 = DATE_TIME_ROLE ( 'creation_date' ) ;
#178 = EDGE_LOOP ( 'NONE', ( #141 ) ) ;
#179 = DIRECTION ( 'NONE',  ( -0.0000000000000000000, -0.0000000000000000000, 1.000000000000000000 ) ) ;
#180 = DIRECTION ( 'NONE',  ( 1.000000000000000000, 0.0000000000000000000, 0.0000000000000000000 ) ) ;
#181 = DIRECTION ( 'NONE',  ( 1.000000000000000000, 0.0000000000000000000, 0.0000000000000000000 ) ) ;
#182 = ORIENTED_EDGE ( 'NONE', *, *, #311, .T. ) ;
#183 = PLANE ( 'NONE',  #78 ) ;
#184 = APPROVAL ( #142, 'UNSPECIFIED' ) ;
#185 = ORIENTED_EDGE ( 'NONE', *, *, #156, .F. ) ;
#186 = DIRECTION ( 'NONE',  ( -0.0000000000000000000, -0.0000000000000000000, 1.000000000000000000 ) ) ;
#187 = EDGE_LOOP ( 'NONE', ( #185 ) ) ;
#188 = AXIS2_PLACEMENT_3D ( 'NONE', #97, #194, #180 ) ;
#189 = PERSON ( 'UNSPECIFIED', 'UNSPECIFIED', 'UNSPECIFIED', ('UNSPECIFIED'), ('UNSPECIFIED'), ('UNSPECIFIED') ) ;
#190 = ADVANCED_FACE ( 'NONE', ( #147, #49 ), #230, .T. ) ;
#191 = CIRCLE ( 'NONE', #136, 2.165000000000000000 ) ;
#192 = AXIS2_PLACEMENT_3D ( 'NONE', #321, #227, #297 ) ;
#193 = CYLINDRICAL_SURFACE ( 'NONE', #6, 2.165000000000000000 ) ;
#194 = DIRECTION ( 'NONE',  ( -0.0000000000000000000, -0.0000000000000000000, 1.000000000000000000 ) ) ;
#195 = PRODUCT_RELATED_PRODUCT_CATEGORY ( 'detail', '', ( #19 ) ) ;
#196 = CLOSED_SHELL ( 'NONE', ( #5, #176, #151, #284, #190, #80, #2, #307, #64, #202, #274, #210 ) ) ;
#197 = DIRECTION ( 'NONE',  ( 1.000000000000000000, 0.0000000000000000000, 0.0000000000000000000 ) ) ;
#198 = CARTESIAN_POINT ( 'NONE',  ( 0.0000000000000000000, 0.0000000000000000000, -1.750000000000000200 ) ) ;
#199 = APPROVAL_PERSON_ORGANIZATION ( #259, #86, #108 ) ;
#200 = EDGE_LOOP ( 'NONE', ( #31 ) ) ;
#201 = DIRECTION ( 'NONE',  ( 1.000000000000000000, 0.0000000000000000000, 0.0000000000000000000 ) ) ;
#202 = ADVANCED_FACE ( 'NONE', ( #116, #281 ), #29, .F. ) ;
#203 = VERTEX_POINT ( 'NONE', #293 ) ;
#204 = FACE_OUTER_BOUND ( 'NONE', #105, .T. ) ;
#205 = DIRECTION ( 'NONE',  ( -0.0000000000000000000, -0.0000000000000000000, 1.000000000000000000 ) ) ;
#206 = DIRECTION ( 'NONE',  ( 1.000000000000000000, 0.0000000000000000000, 0.0000000000000000000 ) ) ;
#207 = EDGE_LOOP ( 'NONE', ( #310 ) ) ;
#208 = PERSON_AND_ORGANIZATION ( #189, #76 ) ;
#209 = FACE_OUTER_BOUND ( 'NONE', #283, .T. ) ;
#210 = ADVANCED_FACE ( 'NONE', ( #277, #104 ), #193, .T. ) ;
#211 = PERSON_AND_ORGANIZATION ( #189, #76 ) ;
#212 = APPROVAL_DATE_TIME ( #124, #331 ) ;
#213 = VERTEX_POINT ( 'NONE', #320 ) ;
#214 = AXIS2_PLACEMENT_3D ( 'NONE', #225, #85, #153 ) ;
#215 = DATE_AND_TIME ( #7, #103 ) ;
#216 = EDGE_LOOP ( 'NONE', ( #79 ) ) ;
#217 = AXIS2_PLACEMENT_3D ( 'NONE', #327, #323, #260 ) ;
#218 = CARTESIAN_POINT ( 'NONE',  ( 2.165000000000000000, 0.0000000000000000000, 0.0000000000000000000 ) ) ;
#219 = EDGE_CURVE ( 'NONE', #28, #28, #191, .T. ) ;
#220 = DIRECTION ( 'NONE',  ( -0.0000000000000000000, -0.0000000000000000000, 1.000000000000000000 ) ) ;
#221 = ORIENTED_EDGE ( 'NONE', *, *, #57, .T. ) ;
#222 = SECURITY_CLASSIFICATION_LEVEL ( 'unclassified' ) ;
#223 = EDGE_LOOP ( 'NONE', ( #221 ) ) ;
#224 = AXIS2_PLACEMENT_3D ( 'NONE', #27, #101, #126 ) ;
#225 = CARTESIAN_POINT ( 'NONE',  ( 0.0000000000000000000, 0.0000000000000000000, -1.629999999999999900 ) ) ;
#226 = EDGE_CURVE ( 'NONE', #56, #56, #135, .T. ) ;
#227 = DIRECTION ( 'NONE',  ( -0.0000000000000000000, -0.0000000000000000000, 1.000000000000000000 ) ) ;
#228 = FACE_OUTER_BOUND ( 'NONE', #166, .T. ) ;
#229 = EDGE_CURVE ( 'NONE', #252, #252, #161, .T. ) ;
#230 = TOROIDAL_SURFACE ( 'NONE', #112, 1.131999999999999700, 0.1199999999999998700 ) ;
#231 = FACE_OUTER_BOUND ( 'NONE', #63, .T. ) ;
#232 = PERSON_AND_ORGANIZATION ( #189, #76 ) ;
#233 = FACE_OUTER_BOUND ( 'NONE', #155, .T. ) ;
#234 = DIRECTION ( 'NONE',  ( -0.0000000000000000000, -0.0000000000000000000, 1.000000000000000000 ) ) ;
#235 = PRODUCT_DEFINITION ( 'UNKNOWN', '', #257, #148 ) ;
#236 = PERSON_AND_ORGANIZATION ( #189, #76 ) ;
#237 = AXIS2_PLACEMENT_3D ( 'NONE', #36, #205, #328 ) ;
#238 = ORIENTED_EDGE ( 'NONE', *, *, #272, .T. ) ;
#239 = VERTEX_POINT ( 'NONE', #8 ) ;
#240 = DIRECTION ( 'NONE',  ( 1.000000000000000000, 0.0000000000000000000, 0.0000000000000000000 ) ) ;
#241 = DIRECTION ( 'NONE',  ( 1.000000000000000000, 0.0000000000000000000, 0.0000000000000000000 ) ) ;
#242 = DIRECTION ( 'NONE',  ( 1.000000000000000000, 0.0000000000000000000, 0.0000000000000000000 ) ) ;
#243 = COORDINATED_UNIVERSAL_TIME_OFFSET ( 5, 0, .BEHIND. ) ;
#244 = MANIFOLD_SOLID_BREP ( 'Revolve1', #196 ) ;
#245 = CIRCLE ( 'NONE', #300, 1.742925333174277300 ) ;
#246 = DATE_AND_TIME ( #71, #92 ) ;
#247 = EDGE_LOOP ( 'NONE', ( #175 ) ) ;
#248 = AXIS2_PLACEMENT_3D ( 'NONE', #90, #318, #201 ) ;
#249 = EDGE_LOOP ( 'NONE', ( #30 ) ) ;
#250 = CYLINDRICAL_SURFACE ( 'NONE', #292, 1.011999999999999800 ) ;
#251 = CARTESIAN_POINT ( 'NONE',  ( 0.0000000000000000000, 0.0000000000000000000, -1.414759319840507300 ) ) ;
#252 = VERTEX_POINT ( 'NONE', #58 ) ;
#253 = EDGE_LOOP ( 'NONE', ( #37 ) ) ;
#254 = AXIS2_PLACEMENT_3D ( 'NONE', #16, #48, #9 ) ;
#255 = EDGE_LOOP ( 'NONE', ( #46 ) ) ;
#256 = DIRECTION ( 'NONE',  ( 1.000000000000000000, 0.0000000000000000000, 0.0000000000000000000 ) ) ;
#257 = PRODUCT_DEFINITION_FORMATION_WITH_SPECIFIED_SOURCE ( 'ANY', '', #19, .NOT_KNOWN. ) ;
#258 = CARTESIAN_POINT ( 'NONE',  ( 0.0000000000000000000, 0.0000000000000000000, 1.889664804469273200 ) ) ;
#259 = PERSON_AND_ORGANIZATION ( #189, #76 ) ;
#260 = DIRECTION ( 'NONE',  ( 1.000000000000000000, 0.0000000000000000000, 0.0000000000000000000 ) ) ;
#261 = CIRCLE ( 'NONE', #188, 1.359999999999999900 ) ;
#262 = AXIS2_PLACEMENT_3D ( 'NONE', #251, #117, #87 ) ;
#263 = EDGE_LOOP ( 'NONE', ( #129 ) ) ;
#264 = DIRECTION ( 'NONE',  ( -0.0000000000000000000, -0.0000000000000000000, 1.000000000000000000 ) ) ;
#265 = VERTEX_POINT ( 'NONE', #110 ) ;
#266 = EDGE_CURVE ( 'NONE', #265, #265, #134, .T. ) ;
#267 = CYLINDRICAL_SURFACE ( 'NONE', #192, 1.771000000000000100 ) ;
#268 = ORIENTED_EDGE ( 'NONE', *, *, #266, .T. ) ;
#269 = AXIS2_PLACEMENT_3D ( 'NONE', #18, #61, #206 ) ;
#270 = CYLINDRICAL_SURFACE ( 'NONE', #303, 1.240000000000000000 ) ;
#271 = CIRCLE ( 'NONE', #55, 1.011999999999999800 ) ;
#272 = EDGE_CURVE ( 'NONE', #21, #21, #42, .T. ) ;
#273 = DIRECTION ( 'NONE',  ( 0.0000000000000000000, 0.0000000000000000000, 1.000000000000000000 ) ) ;
#274 = ADVANCED_FACE ( 'NONE', ( #75, #154 ), #51, .T. ) ;
#275 = DIRECTION ( 'NONE',  ( 1.000000000000000000, 0.0000000000000000000, 0.0000000000000000000 ) ) ;
#276 = COORDINATED_UNIVERSAL_TIME_OFFSET ( 5, 0, .BEHIND. ) ;
#277 = FACE_OUTER_BOUND ( 'NONE', #137, .T. ) ;
#278 = ORIENTED_EDGE ( 'NONE', *, *, #127, .T. ) ;
#279 = CIRCLE ( 'NONE', #280, 1.239999999999999500 ) ;
#280 = AXIS2_PLACEMENT_3D ( 'NONE', #294, #330, #302 ) ;
#281 = FACE_BOUND ( 'NONE', #170, .T. ) ;
#282 = UNCERTAINTY_MEASURE_WITH_UNIT (LENGTH_MEASURE( 1.000000000000000100E-005 ), #12, 'distance_accuracy_value', 'NONE');
#283 = EDGE_LOOP ( 'NONE', ( #278 ) ) ;
#284 = ADVANCED_FACE ( 'NONE', ( #160, #233 ), #41, .F. ) ;
#285 = FACE_OUTER_BOUND ( 'NONE', #223, .T. ) ;
#286 = EDGE_LOOP ( 'NONE', ( #47 ) ) ;
#287 = DIRECTION ( 'NONE',  ( 0.0000000000000000000, -0.0000000000000000000, 1.000000000000000000 ) ) ;
#288 = FACE_OUTER_BOUND ( 'NONE', #216, .T. ) ;
#289 = ORIENTED_EDGE ( 'NONE', *, *, #229, .F. ) ;
#290 = DIRECTION ( 'NONE',  ( -0.0000000000000000000, -0.0000000000000000000, 1.000000000000000000 ) ) ;
#291 = CC_DESIGN_SECURITY_CLASSIFICATION ( #174, ( #257 ) ) ;
#292 = AXIS2_PLACEMENT_3D ( 'NONE', #130, #264, #40 ) ;
#293 = CARTESIAN_POINT ( 'NONE',  ( 2.044999999999999900, 0.0000000000000000000, -1.750000000000000200 ) ) ;
#294 = CARTESIAN_POINT ( 'NONE',  ( 0.0000000000000000000, 0.0000000000000000000, -1.870000000000000600 ) ) ;
#295 = CARTESIAN_POINT ( 'NONE',  ( 1.770999999999999700, 0.0000000000000000000, -0.5000000000000001100 ) ) ;
#296 = EDGE_CURVE ( 'NONE', #203, #203, #138, .T. ) ;
#297 = DIRECTION ( 'NONE',  ( 1.000000000000000000, 0.0000000000000000000, 0.0000000000000000000 ) ) ;
#298 =( NAMED_UNIT ( * ) SI_UNIT ( $, .STERADIAN. ) SOLID_ANGLE_UNIT ( ) );
#299 = APPLICATION_CONTEXT ( 'configuration controlled 3d designs of mechanical parts and assemblies' ) ;
#300 = AXIS2_PLACEMENT_3D ( 'NONE', #100, #234, #241 ) ;
#301 = MECHANICAL_CONTEXT ( 'NONE', #299, 'mechanical' ) ;
#302 = DIRECTION ( 'NONE',  ( 1.000000000000000000, 0.0000000000000000000, 0.0000000000000000000 ) ) ;
#303 = AXIS2_PLACEMENT_3D ( 'NONE', #91, #173, #242 ) ;
#304 = ORIENTED_EDGE ( 'NONE', *, *, #33, .T. ) ;
#305 = PRODUCT_DEFINITION_SHAPE ( 'NONE', 'NONE',  #235 ) ;
#306 = CC_DESIGN_PERSON_AND_ORGANIZATION_ASSIGNMENT ( #139, #162, ( #174 ) ) ;
#307 = ADVANCED_FACE ( 'NONE', ( #32, #228 ), #270, .T. ) ;
#308 = AXIS2_PLACEMENT_3D ( 'NONE', #198, #220, #240 ) ;
#309 = TOROIDAL_SURFACE ( 'NONE', #217, 1.359999999999999900, 0.1200000000000003600 ) ;
#310 = ORIENTED_EDGE ( 'NONE', *, *, #296, .T. ) ;
#311 = EDGE_CURVE ( 'NONE', #172, #172, #313, .T. ) ;
#312 = CARTESIAN_POINT ( 'NONE',  ( 1.040074666825722600, 0.0000000000000000000, -1.414759319840507300 ) ) ;
#313 = CIRCLE ( 'NONE', #133, 1.770999999999999700 ) ;
#314 = CALENDAR_DATE ( 2017, 31, 7 ) ;
#315 = DIRECTION ( 'NONE',  ( 1.000000000000000000, 0.0000000000000000000, 0.0000000000000000000 ) ) ;
#316 = CC_DESIGN_PERSON_AND_ORGANIZATION_ASSIGNMENT ( #211, #324, ( #257 ) ) ;
#317 = CARTESIAN_POINT ( 'NONE',  ( 0.0000000000000000000, 0.0000000000000000000, -1.491893833002892400 ) ) ;
#318 = DIRECTION ( 'NONE',  ( -0.0000000000000000000, -0.0000000000000000000, 1.000000000000000000 ) ) ;
#319 = PERSON_AND_ORGANIZATION_ROLE ( 'design_owner' ) ;
#320 = CARTESIAN_POINT ( 'NONE',  ( 1.011999999999999800, 0.0000000000000000000, -1.491893833002892400 ) ) ;
#321 = CARTESIAN_POINT ( 'NONE',  ( 0.0000000000000000000, 0.0000000000000000000, 1.889664804469273200 ) ) ;
#322 = PERSON_AND_ORGANIZATION ( #189, #76 ) ;
#323 = DIRECTION ( 'NONE',  ( -0.0000000000000000000, -0.0000000000000000000, 1.000000000000000000 ) ) ;
#324 = PERSON_AND_ORGANIZATION_ROLE ( 'design_supplier' ) ;
#325 = EDGE_LOOP ( 'NONE', ( #4 ) ) ;
#326 = PERSON_AND_ORGANIZATION_ROLE ( 'creator' ) ;
#327 = CARTESIAN_POINT ( 'NONE',  ( 0.0000000000000000000, 0.0000000000000000000, -1.870000000000000600 ) ) ;
#328 = DIRECTION ( 'NONE',  ( 1.000000000000000000, 0.0000000000000000000, 0.0000000000000000000 ) ) ;
#329 =( NAMED_UNIT ( * ) PLANE_ANGLE_UNIT ( ) SI_UNIT ( $, .RADIAN. ) );
#330 = DIRECTION ( 'NONE',  ( -0.0000000000000000000, -0.0000000000000000000, 1.000000000000000000 ) ) ;
#331 = APPROVAL ( #125, 'UNSPECIFIED' ) ;
#332 = AXIS2_PLACEMENT_3D ( 'NONE', #68, #287, #256 ) ;
ENDSEC;
END-ISO-10303-21;
