ISO-10303-21;
HEADER;
FILE_DESCRIPTION (( 'STEP AP203' ),
    '1' );
FILE_NAME ('581207338.STEP',
    '2017-07-31T18:33:23',
    ( '' ),
    ( '' ),
    'SwSTEP 2.0',
    'SolidWorks 2017',
    '' );
FILE_SCHEMA (( 'CONFIG_CONTROL_DESIGN' ));
ENDSEC;

DATA;
#1 = VERTEX_POINT ( 'NONE', #18 ) ;
#2 = DIRECTION ( 'NONE',  ( -1.000000000000000000, 0.0000000000000000000, 0.0000000000000000000 ) ) ;
#3 = DIRECTION ( 'NONE',  ( -0.0000000000000000000, -0.0000000000000000000, -1.000000000000000000 ) ) ;
#4 = CARTESIAN_POINT ( 'NONE',  ( 0.0000000000000000000, 0.0000000000000000000, 0.0000000000000000000 ) ) ;
#5 = TOROIDAL_SURFACE ( 'NONE', #201, 1.131999999999999900, 0.1200000000000001200 ) ;
#6 = DIRECTION ( 'NONE',  ( -1.000000000000000000, 0.0000000000000000000, 0.0000000000000000000 ) ) ;
#7 = DIRECTION ( 'NONE',  ( -1.000000000000000000, 0.0000000000000000000, 0.0000000000000000000 ) ) ;
#8 = ORIENTED_EDGE ( 'NONE', *, *, #163, .T. ) ;
#9 = EDGE_CURVE ( 'NONE', #140, #140, #145, .T. ) ;
#10 = DIRECTION ( 'NONE',  ( -0.0000000000000000000, -0.0000000000000000000, -1.000000000000000000 ) ) ;
#11 = CARTESIAN_POINT ( 'NONE',  ( 0.0000000000000000000, 0.0000000000000000000, -1.750000000000000200 ) ) ;
#12 = EDGE_LOOP ( 'NONE', ( #270 ) ) ;
#13 = CARTESIAN_POINT ( 'NONE',  ( -1.770000000000000000, 0.0000000000000000000, 0.0000000000000000000 ) ) ;
#14 = CYLINDRICAL_SURFACE ( 'NONE', #130, 1.240000000000000400 ) ;
#15 = EDGE_LOOP ( 'NONE', ( #323 ) ) ;
#16 = ORIENTED_EDGE ( 'NONE', *, *, #143, .T. ) ;
#17 = DATE_TIME_ROLE ( 'creation_date' ) ;
#18 = CARTESIAN_POINT ( 'NONE',  ( -1.011999999999999800, 0.0000000000000000000, -1.034411254969541900 ) ) ;
#19 = FACE_OUTER_BOUND ( 'NONE', #52, .T. ) ;
#20 = ORIENTED_EDGE ( 'NONE', *, *, #48, .F. ) ;
#21 = PERSON_AND_ORGANIZATION_ROLE ( 'creator' ) ;
#22 = APPROVAL_STATUS ( 'not_yet_approved' ) ;
#23 = APPROVAL_ROLE ( '' ) ;
#24 = ADVANCED_FACE ( 'NONE', ( #195, #164 ), #217, .T. ) ;
#25 = AXIS2_PLACEMENT_3D ( 'NONE', #226, #223, #225 ) ;
#26 = EDGE_LOOP ( 'NONE', ( #250 ) ) ;
#27 = EDGE_LOOP ( 'NONE', ( #97 ) ) ;
#28 = FACE_OUTER_BOUND ( 'NONE', #27, .T. ) ;
#29 = AXIS2_PLACEMENT_3D ( 'NONE', #303, #213, #218 ) ;
#30 = APPLICATION_PROTOCOL_DEFINITION ( 'international standard', 'config_control_design', 1994, #33 ) ;
#31 = VERTEX_POINT ( 'NONE', #104 ) ;
#32 = TOROIDAL_SURFACE ( 'NONE', #41, 1.649999999999999900, 0.1200000000000000900 ) ;
#33 = APPLICATION_CONTEXT ( 'configuration controlled 3d designs of mechanical parts and assemblies' ) ;
#34 = DIRECTION ( 'NONE',  ( -1.000000000000000000, 0.0000000000000000000, 0.0000000000000000000 ) ) ;
#35 = FACE_OUTER_BOUND ( 'NONE', #126, .T. ) ;
#36 = PERSON_AND_ORGANIZATION_ROLE ( 'design_owner' ) ;
#37 = MECHANICAL_CONTEXT ( 'NONE', #43, 'mechanical' ) ;
#38 = EDGE_LOOP ( 'NONE', ( #108 ) ) ;
#39 = DIRECTION ( 'NONE',  ( 1.000000000000000000, 0.0000000000000000000, 0.0000000000000000000 ) ) ;
#40 = APPROVAL ( #63, 'UNSPECIFIED' ) ;
#41 = AXIS2_PLACEMENT_3D ( 'NONE', #233, #258, #122 ) ;
#42 = PRODUCT_DEFINITION_SHAPE ( 'NONE', 'NONE',  #292 ) ;
#43 = APPLICATION_CONTEXT ( 'configuration controlled 3d designs of mechanical parts and assemblies' ) ;
#44 = FACE_BOUND ( 'NONE', #38, .T. ) ;
#45 = APPLICATION_PROTOCOL_DEFINITION ( 'international standard', 'config_control_design', 1994, #43 ) ;
#46 = CC_DESIGN_PERSON_AND_ORGANIZATION_ASSIGNMENT ( #146, #21, ( #292 ) ) ;
#47 =( NAMED_UNIT ( * ) SI_UNIT ( $, .STERADIAN. ) SOLID_ANGLE_UNIT ( ) );
#48 = EDGE_CURVE ( 'NONE', #31, #31, #312, .T. ) ;
#49 =( NAMED_UNIT ( * ) PLANE_ANGLE_UNIT ( ) SI_UNIT ( $, .RADIAN. ) );
#50 =( CONVERSION_BASED_UNIT ( 'INCH', #186 ) LENGTH_UNIT ( ) NAMED_UNIT ( #155 ) );
#51 =( LENGTH_UNIT ( ) NAMED_UNIT ( * ) SI_UNIT ( $, .METRE. ) );
#52 = EDGE_LOOP ( 'NONE', ( #294 ) ) ;
#53 = CC_DESIGN_PERSON_AND_ORGANIZATION_ASSIGNMENT ( #185, #314, ( #315 ) ) ;
#54 = ORIENTED_EDGE ( 'NONE', *, *, #120, .F. ) ;
#55 = DIRECTION ( 'NONE',  ( 0.0000000000000000000, 0.0000000000000000000, 1.000000000000000000 ) ) ;
#56 = CARTESIAN_POINT ( 'NONE',  ( -1.240000000000000200, 0.0000000000000000000, -3.000000000000000400 ) ) ;
#57 = CARTESIAN_POINT ( 'NONE',  ( -1.047147186257614300, 0.0000000000000000000, -0.9495584412271559400 ) ) ;
#58 = COORDINATED_UNIVERSAL_TIME_OFFSET ( 5, 0, .BEHIND. ) ;
#59 = CARTESIAN_POINT ( 'NONE',  ( -1.649999999999999900, 0.0000000000000000000, -1.750000000000000200 ) ) ;
#60 = CARTESIAN_POINT ( 'NONE',  ( -1.360000000000000300, 0.0000000000000000000, -1.750000000000000400 ) ) ;
#61 = ORIENTED_EDGE ( 'NONE', *, *, #327, .F. ) ;
#62 = CARTESIAN_POINT ( 'NONE',  ( -1.411852813742385400, 0.0000000000000000000, -0.5848528137423858500 ) ) ;
#63 = APPROVAL_STATUS ( 'not_yet_approved' ) ;
#64 = ORIENTED_EDGE ( 'NONE', *, *, #177, .F. ) ;
#65 = EDGE_LOOP ( 'NONE', ( #179 ) ) ;
#66 = DATE_AND_TIME ( #259, #257 ) ;
#67 = CIRCLE ( 'NONE', #182, 1.011999999999999800 ) ;
#68 = ADVANCED_FACE ( 'NONE', ( #165, #125 ), #150, .F. ) ;
#69 = ADVANCED_FACE ( 'NONE', ( #256, #19 ), #32, .T. ) ;
#70 = AXIS2_PLACEMENT_3D ( 'NONE', #159, #208, #34 ) ;
#71 = COORDINATED_UNIVERSAL_TIME_OFFSET ( 5, 0, .BEHIND. ) ;
#72 = CIRCLE ( 'NONE', #148, 1.770000000000000000 ) ;
#73 = EDGE_CURVE ( 'NONE', #93, #93, #144, .T. ) ;
#74 = APPROVAL_PERSON_ORGANIZATION ( #235, #141, #23 ) ;
#75 = CC_DESIGN_DATE_AND_TIME_ASSIGNMENT ( #197, #309, ( #137 ) ) ;
#76 = DIRECTION ( 'NONE',  ( -0.0000000000000000000, -0.0000000000000000000, -1.000000000000000000 ) ) ;
#77 = PERSON ( 'UNSPECIFIED', 'UNSPECIFIED', 'UNSPECIFIED', ('UNSPECIFIED'), ('UNSPECIFIED'), ('UNSPECIFIED') ) ;
#78 = ADVANCED_FACE ( 'NONE', ( #139, #129 ), #149, .F. ) ;
#79 = ORGANIZATION ( 'UNSPECIFIED', 'UNSPECIFIED', '' ) ;
#80 = DIRECTION ( 'NONE',  ( -0.0000000000000000000, -0.0000000000000000000, -1.000000000000000000 ) ) ;
#81 = EDGE_LOOP ( 'NONE', ( #64 ) ) ;
#82 = DIRECTION ( 'NONE',  ( -1.000000000000000000, 0.0000000000000000000, 0.0000000000000000000 ) ) ;
#83 = DIRECTION ( 'NONE',  ( -1.000000000000000000, 0.0000000000000000000, 0.0000000000000000000 ) ) ;
#84 = CARTESIAN_POINT ( 'NONE',  ( 0.0000000000000000000, 0.0000000000000000000, 0.0000000000000000000 ) ) ;
#85 = DIRECTION ( 'NONE',  ( -1.000000000000000000, 0.0000000000000000000, 0.0000000000000000000 ) ) ;
#86 = EDGE_LOOP ( 'NONE', ( #147 ) ) ;
#87 = CONICAL_SURFACE ( 'NONE', #121, 1.411852813742385400, 0.7853981633974496100 ) ;
#88 = CARTESIAN_POINT ( 'NONE',  ( -1.446999999999999800, 0.0000000000000000000, -0.5000000000000000000 ) ) ;
#89 = ADVANCED_FACE ( 'NONE', ( #44, #109 ), #87, .F. ) ;
#90 = CARTESIAN_POINT ( 'NONE',  ( -1.012000000000000200, 0.0000000000000000000, -3.000000000000000400 ) ) ;
#91 = AXIS2_PLACEMENT_3D ( 'NONE', #191, #190, #200 ) ;
#92 = DIRECTION ( 'NONE',  ( -1.000000000000000000, 0.0000000000000000000, 0.0000000000000000000 ) ) ;
#93 = VERTEX_POINT ( 'NONE', #94 ) ;
#94 = CARTESIAN_POINT ( 'NONE',  ( -1.240000000000000400, 0.0000000000000000000, -1.870000000000000100 ) ) ;
#95 = VERTEX_POINT ( 'NONE', #13 ) ;
#96 = DIRECTION ( 'NONE',  ( -1.000000000000000000, 0.0000000000000000000, 0.0000000000000000000 ) ) ;
#97 = ORIENTED_EDGE ( 'NONE', *, *, #120, .T. ) ;
#98 = CARTESIAN_POINT ( 'NONE',  ( -1.446999999999999800, 0.0000000000000000000, 0.0000000000000000000 ) ) ;
#99 = CLOSED_SHELL ( 'NONE', ( #24, #68, #78, #89, #152, #326, #113, #274, #243, #167, #69, #180 ) ) ;
#100 = CARTESIAN_POINT ( 'NONE',  ( 0.0000000000000000000, 0.0000000000000000000, -3.000000000000000400 ) ) ;
#101 = CC_DESIGN_APPROVAL ( #141, ( #292 ) ) ;
#102 = EDGE_CURVE ( 'NONE', #118, #118, #298, .T. ) ;
#103 = DIRECTION ( 'NONE',  ( -0.0000000000000000000, -0.0000000000000000000, -1.000000000000000000 ) ) ;
#104 = CARTESIAN_POINT ( 'NONE',  ( -1.770000000000000000, 0.0000000000000000000, -1.630000000000000100 ) ) ;
#105 = DIRECTION ( 'NONE',  ( -0.0000000000000000000, -0.0000000000000000000, -1.000000000000000000 ) ) ;
#106 = AXIS2_PLACEMENT_3D ( 'NONE', #209, #210, #247 ) ;
#107 = DIRECTION ( 'NONE',  ( -0.0000000000000000000, -0.0000000000000000000, -1.000000000000000000 ) ) ;
#108 = ORIENTED_EDGE ( 'NONE', *, *, #261, .T. ) ;
#109 = FACE_OUTER_BOUND ( 'NONE', #289, .T. ) ;
#110 = FACE_OUTER_BOUND ( 'NONE', #279, .T. ) ;
#111 = PRODUCT_RELATED_PRODUCT_CATEGORY ( 'detail', '', ( #127 ) ) ;
#112 = CIRCLE ( 'NONE', #91, 1.411852813742385400 ) ;
#113 = ADVANCED_FACE ( 'NONE', ( #277, #199 ), #239, .T. ) ;
#114 = AXIS2_PLACEMENT_3D ( 'NONE', #237, #234, #273 ) ;
#115 = AXIS2_PLACEMENT_3D ( 'NONE', #305, #80, #92 ) ;
#116 = VERTEX_POINT ( 'NONE', #60 ) ;
#117 = CARTESIAN_POINT ( 'NONE',  ( 0.0000000000000000000, 0.0000000000000000000, -1.750000000000000400 ) ) ;
#118 = VERTEX_POINT ( 'NONE', #98 ) ;
#119 = CARTESIAN_POINT ( 'NONE',  ( 0.0000000000000000000, 0.0000000000000000000, -1.034411254969541900 ) ) ;
#120 = EDGE_CURVE ( 'NONE', #95, #95, #72, .T. ) ;
#121 = AXIS2_PLACEMENT_3D ( 'NONE', #198, #196, #238 ) ;
#122 = DIRECTION ( 'NONE',  ( -1.000000000000000000, 0.0000000000000000000, 0.0000000000000000000 ) ) ;
#123 = COORDINATED_UNIVERSAL_TIME_OFFSET ( 5, 0, .BEHIND. ) ;
#124 = DESIGN_CONTEXT ( 'detailed design', #33, 'design' ) ;
#125 = FACE_OUTER_BOUND ( 'NONE', #324, .T. ) ;
#126 = EDGE_LOOP ( 'NONE', ( #20 ) ) ;
#127 = PRODUCT ( '581207338', '581207338', '', ( #37 ) ) ;
#128 = ORIENTED_EDGE ( 'NONE', *, *, #102, .T. ) ;
#129 = FACE_OUTER_BOUND ( 'NONE', #302, .T. ) ;
#130 = AXIS2_PLACEMENT_3D ( 'NONE', #4, #3, #2 ) ;
#131 = DIRECTION ( 'NONE',  ( -0.0000000000000000000, -0.0000000000000000000, -1.000000000000000000 ) ) ;
#132 = PERSON_AND_ORGANIZATION ( #77, #79 ) ;
#133 = FACE_OUTER_BOUND ( 'NONE', #301, .T. ) ;
#134 = CIRCLE ( 'NONE', #135, 1.360000000000000300 ) ;
#135 = AXIS2_PLACEMENT_3D ( 'NONE', #117, #188, #96 ) ;
#136 = EDGE_CURVE ( 'NONE', #1, #1, #67, .T. ) ;
#137 = SECURITY_CLASSIFICATION ( '', '', #311 ) ;
#138 = FACE_OUTER_BOUND ( 'NONE', #253, .T. ) ;
#139 = FACE_OUTER_BOUND ( 'NONE', #293, .T. ) ;
#140 = VERTEX_POINT ( 'NONE', #90 ) ;
#141 = APPROVAL ( #22, 'UNSPECIFIED' ) ;
#142 = CC_DESIGN_SECURITY_CLASSIFICATION ( #137, ( #315 ) ) ;
#143 = EDGE_CURVE ( 'NONE', #173, #173, #280, .T. ) ;
#144 = CIRCLE ( 'NONE', #211, 1.240000000000000400 ) ;
#145 = CIRCLE ( 'NONE', #29, 1.012000000000000200 ) ;
#146 = PERSON_AND_ORGANIZATION ( #77, #79 ) ;
#147 = ORIENTED_EDGE ( 'NONE', *, *, #73, .F. ) ;
#148 = AXIS2_PLACEMENT_3D ( 'NONE', #299, #318, #316 ) ;
#149 = TOROIDAL_SURFACE ( 'NONE', #114, 1.326999999999999700, 0.1200000000000000200 ) ;
#150 = CYLINDRICAL_SURFACE ( 'NONE', #25, 1.446999999999999800 ) ;
#151 = CARTESIAN_POINT ( 'NONE',  ( 0.0000000000000000000, 0.0000000000000000000, -1.870000000000000100 ) ) ;
#152 = ADVANCED_FACE ( 'NONE', ( #329, #176 ), #5, .T. ) ;
#153 = EDGE_LOOP ( 'NONE', ( #16 ) ) ;
#154 = AXIS2_PLACEMENT_3D ( 'NONE', #100, #103, #83 ) ;
#155 = DIMENSIONAL_EXPONENTS ( 1.000000000000000000, 0.0000000000000000000, 0.0000000000000000000, 0.0000000000000000000, 0.0000000000000000000, 0.0000000000000000000, 0.0000000000000000000 ) ;
#156 = APPROVAL_PERSON_ORGANIZATION ( #192, #205, #307 ) ;
#157 = APPROVAL_DATE_TIME ( #181, #141 ) ;
#158 = CC_DESIGN_APPROVAL ( #40, ( #315 ) ) ;
#159 = CARTESIAN_POINT ( 'NONE',  ( 0.0000000000000000000, 1.240000000000000200, -3.000000000000000400 ) ) ;
#160 = ORIENTED_EDGE ( 'NONE', *, *, #215, .T. ) ;
#161 = ORIENTED_EDGE ( 'NONE', *, *, #102, .F. ) ;
#162 = FACE_OUTER_BOUND ( 'NONE', #86, .T. ) ;
#163 = EDGE_CURVE ( 'NONE', #189, #189, #112, .T. ) ;
#164 = FACE_OUTER_BOUND ( 'NONE', #251, .T. ) ;
#165 = FACE_OUTER_BOUND ( 'NONE', #153, .T. ) ;
#166 = DIRECTION ( 'NONE',  ( -0.0000000000000000000, 0.0000000000000000000, -1.000000000000000000 ) ) ;
#167 = ADVANCED_FACE ( 'NONE', ( #220, #320 ), #246, .T. ) ;
#168 = CALENDAR_DATE ( 2017, 31, 7 ) ;
#169 = CYLINDRICAL_SURFACE ( 'NONE', #171, 1.012000000000000000 ) ;
#170 = CC_DESIGN_PERSON_AND_ORGANIZATION_ASSIGNMENT ( #132, #36, ( #127 ) ) ;
#171 = AXIS2_PLACEMENT_3D ( 'NONE', #84, #105, #85 ) ;
#172 = AXIS2_PLACEMENT_3D ( 'NONE', #214, #219, #221 ) ;
#173 = VERTEX_POINT ( 'NONE', #88 ) ;
#174 = PERSON_AND_ORGANIZATION ( #77, #79 ) ;
#175 = LOCAL_TIME ( 14, 33, 23.00000000000000000, #123 ) ;
#176 = FACE_OUTER_BOUND ( 'NONE', #325, .T. ) ;
#177 = EDGE_CURVE ( 'NONE', #116, #116, #134, .T. ) ;
#178 = TOROIDAL_SURFACE ( 'NONE', #203, 1.360000000000000300, 0.1199999999999996800 ) ;
#179 = ORIENTED_EDGE ( 'NONE', *, *, #48, .T. ) ;
#180 = ADVANCED_FACE ( 'NONE', ( #28, #35 ), #224, .T. ) ;
#181 = DATE_AND_TIME ( #231, #263 ) ;
#182 = AXIS2_PLACEMENT_3D ( 'NONE', #330, #319, #332 ) ;
#183 = APPROVAL_DATE_TIME ( #66, #40 ) ;
#184 = PERSON_AND_ORGANIZATION ( #77, #79 ) ;
#185 = PERSON_AND_ORGANIZATION ( #77, #79 ) ;
#186 = LENGTH_MEASURE_WITH_UNIT ( LENGTH_MEASURE( 0.02539999999999999900 ), #51 );
#187 = AXIS2_PLACEMENT_3D ( 'NONE', #296, #131, #255 ) ;
#188 = DIRECTION ( 'NONE',  ( -0.0000000000000000000, -0.0000000000000000000, -1.000000000000000000 ) ) ;
#189 = VERTEX_POINT ( 'NONE', #62 ) ;
#190 = DIRECTION ( 'NONE',  ( -0.0000000000000000000, -0.0000000000000000000, -1.000000000000000000 ) ) ;
#191 = CARTESIAN_POINT ( 'NONE',  ( 0.0000000000000000000, 0.0000000000000000000, -0.5848528137423858500 ) ) ;
#192 = PERSON_AND_ORGANIZATION ( #77, #79 ) ;
#193 = CIRCLE ( 'NONE', #222, 1.649999999999999900 ) ;
#194 = VERTEX_POINT ( 'NONE', #57 ) ;
#195 = FACE_BOUND ( 'NONE', #268, .T. ) ;
#196 = DIRECTION ( 'NONE',  ( 0.0000000000000000000, 0.0000000000000000000, 1.000000000000000000 ) ) ;
#197 = DATE_AND_TIME ( #168, #175 ) ;
#198 = CARTESIAN_POINT ( 'NONE',  ( 0.0000000000000000000, 0.0000000000000000000, -0.5848528137423858500 ) ) ;
#199 = FACE_BOUND ( 'NONE', #232, .T. ) ;
#200 = DIRECTION ( 'NONE',  ( -1.000000000000000000, 0.0000000000000000000, 0.0000000000000000000 ) ) ;
#201 = AXIS2_PLACEMENT_3D ( 'NONE', #119, #76, #287 ) ;
#202 = ORIENTED_EDGE ( 'NONE', *, *, #9, .F. ) ;
#203 = AXIS2_PLACEMENT_3D ( 'NONE', #151, #107, #6 ) ;
#204 = CC_DESIGN_APPROVAL ( #205, ( #137 ) ) ;
#205 = APPROVAL ( #308, 'UNSPECIFIED' ) ;
#206 = AXIS2_PLACEMENT_3D ( 'NONE', #278, #166, #82 ) ;
#207 = DATE_AND_TIME ( #264, #267 ) ;
#208 = DIRECTION ( 'NONE',  ( -0.0000000000000000000, 0.0000000000000000000, -1.000000000000000000 ) ) ;
#209 = CARTESIAN_POINT ( 'NONE',  ( 0.0000000000000000000, 0.0000000000000000000, 0.0000000000000000000 ) ) ;
#210 = DIRECTION ( 'NONE',  ( -0.0000000000000000000, -0.0000000000000000000, -1.000000000000000000 ) ) ;
#211 = AXIS2_PLACEMENT_3D ( 'NONE', #240, #241, #242 ) ;
#212 = CIRCLE ( 'NONE', #154, 1.240000000000000200 ) ;
#213 = DIRECTION ( 'NONE',  ( -0.0000000000000000000, -0.0000000000000000000, -1.000000000000000000 ) ) ;
#214 = CARTESIAN_POINT ( 'NONE',  ( 0.0000000000000000000, 1.446999999999999800, 0.0000000000000000000 ) ) ;
#215 = EDGE_CURVE ( 'NONE', #269, #269, #193, .T. ) ;
#216 = CARTESIAN_POINT ( 'NONE',  ( 0.0000000000000000000, 0.0000000000000000000, 0.0000000000000000000 ) ) ;
#217 = PLANE ( 'NONE',  #172 ) ;
#218 = DIRECTION ( 'NONE',  ( -1.000000000000000000, 0.0000000000000000000, 0.0000000000000000000 ) ) ;
#219 = DIRECTION ( 'NONE',  ( 0.0000000000000000000, 0.0000000000000000000, 1.000000000000000000 ) ) ;
#220 = FACE_OUTER_BOUND ( 'NONE', #282, .T. ) ;
#221 = DIRECTION ( 'NONE',  ( 1.000000000000000000, 0.0000000000000000000, -0.0000000000000000000 ) ) ;
#222 = AXIS2_PLACEMENT_3D ( 'NONE', #11, #10, #7 ) ;
#223 = DIRECTION ( 'NONE',  ( -0.0000000000000000000, -0.0000000000000000000, -1.000000000000000000 ) ) ;
#224 = CYLINDRICAL_SURFACE ( 'NONE', #187, 1.770000000000000000 ) ;
#225 = DIRECTION ( 'NONE',  ( -1.000000000000000000, 0.0000000000000000000, 0.0000000000000000000 ) ) ;
#226 = CARTESIAN_POINT ( 'NONE',  ( 0.0000000000000000000, 0.0000000000000000000, 0.0000000000000000000 ) ) ;
#227 = CARTESIAN_POINT ( 'NONE',  ( 0.0000000000000000000, 0.0000000000000000000, -1.630000000000000100 ) ) ;
#228 = DIRECTION ( 'NONE',  ( -0.0000000000000000000, -0.0000000000000000000, -1.000000000000000000 ) ) ;
#229 = EDGE_LOOP ( 'NONE', ( #61 ) ) ;
#230 = DIRECTION ( 'NONE',  ( -1.000000000000000000, 0.0000000000000000000, 0.0000000000000000000 ) ) ;
#231 = CALENDAR_DATE ( 2017, 31, 7 ) ;
#232 = EDGE_LOOP ( 'NONE', ( #202 ) ) ;
#233 = CARTESIAN_POINT ( 'NONE',  ( 0.0000000000000000000, 0.0000000000000000000, -1.630000000000000100 ) ) ;
#234 = DIRECTION ( 'NONE',  ( -0.0000000000000000000, -0.0000000000000000000, -1.000000000000000000 ) ) ;
#235 = PERSON_AND_ORGANIZATION ( #77, #79 ) ;
#236 = COORDINATED_UNIVERSAL_TIME_OFFSET ( 5, 0, .BEHIND. ) ;
#237 = CARTESIAN_POINT ( 'NONE',  ( 0.0000000000000000000, 0.0000000000000000000, -0.5000000000000000000 ) ) ;
#238 = DIRECTION ( 'NONE',  ( 1.000000000000000000, 0.0000000000000000000, 0.0000000000000000000 ) ) ;
#239 = PLANE ( 'NONE',  #70 ) ;
#240 = CARTESIAN_POINT ( 'NONE',  ( 0.0000000000000000000, 0.0000000000000000000, -1.870000000000000100 ) ) ;
#241 = DIRECTION ( 'NONE',  ( -0.0000000000000000000, -0.0000000000000000000, -1.000000000000000000 ) ) ;
#242 = DIRECTION ( 'NONE',  ( -1.000000000000000000, 0.0000000000000000000, 0.0000000000000000000 ) ) ;
#243 = ADVANCED_FACE ( 'NONE', ( #133, #162 ), #178, .F. ) ;
#244 = LOCAL_TIME ( 14, 33, 23.00000000000000000, #328 ) ;
#245 = CALENDAR_DATE ( 2017, 31, 7 ) ;
#246 = PLANE ( 'NONE',  #206 ) ;
#247 = DIRECTION ( 'NONE',  ( -1.000000000000000000, 0.0000000000000000000, 0.0000000000000000000 ) ) ;
#248 =( GEOMETRIC_REPRESENTATION_CONTEXT ( 3 ) GLOBAL_UNCERTAINTY_ASSIGNED_CONTEXT ( ( #275 ) ) GLOBAL_UNIT_ASSIGNED_CONTEXT ( ( #50, #49, #47 ) ) REPRESENTATION_CONTEXT ( 'NONE', 'WORKASPACE' ) );
#249 = APPROVAL_PERSON_ORGANIZATION ( #174, #40, #304 ) ;
#250 = ORIENTED_EDGE ( 'NONE', *, *, #136, .F. ) ;
#251 = EDGE_LOOP ( 'NONE', ( #54 ) ) ;
#252 = CC_DESIGN_PERSON_AND_ORGANIZATION_ASSIGNMENT ( #184, #310, ( #137 ) ) ;
#253 = EDGE_LOOP ( 'NONE', ( #254 ) ) ;
#254 = ORIENTED_EDGE ( 'NONE', *, *, #73, .T. ) ;
#255 = DIRECTION ( 'NONE',  ( -1.000000000000000000, 0.0000000000000000000, 0.0000000000000000000 ) ) ;
#256 = FACE_OUTER_BOUND ( 'NONE', #65, .T. ) ;
#257 = LOCAL_TIME ( 14, 33, 23.00000000000000000, #58 ) ;
#258 = DIRECTION ( 'NONE',  ( -0.0000000000000000000, -0.0000000000000000000, -1.000000000000000000 ) ) ;
#259 = CALENDAR_DATE ( 2017, 31, 7 ) ;
#260 = PERSON_AND_ORGANIZATION ( #77, #79 ) ;
#261 = EDGE_CURVE ( 'NONE', #194, #194, #331, .T. ) ;
#262 = AXIS2_PLACEMENT_3D ( 'NONE', #216, #55, #39 ) ;
#263 = LOCAL_TIME ( 14, 33, 23.00000000000000000, #236 ) ;
#264 = CALENDAR_DATE ( 2017, 31, 7 ) ;
#265 = APPROVAL_DATE_TIME ( #276, #205 ) ;
#266 = ORIENTED_EDGE ( 'NONE', *, *, #177, .T. ) ;
#267 = LOCAL_TIME ( 14, 33, 23.00000000000000000, #71 ) ;
#268 = EDGE_LOOP ( 'NONE', ( #128 ) ) ;
#269 = VERTEX_POINT ( 'NONE', #59 ) ;
#270 = ORIENTED_EDGE ( 'NONE', *, *, #327, .T. ) ;
#271 = CC_DESIGN_PERSON_AND_ORGANIZATION_ASSIGNMENT ( #260, #313, ( #315 ) ) ;
#272 = FACE_OUTER_BOUND ( 'NONE', #26, .T. ) ;
#273 = DIRECTION ( 'NONE',  ( -1.000000000000000000, 0.0000000000000000000, 0.0000000000000000000 ) ) ;
#274 = ADVANCED_FACE ( 'NONE', ( #138, #295 ), #14, .T. ) ;
#275 = UNCERTAINTY_MEASURE_WITH_UNIT (LENGTH_MEASURE( 1.000000000000000100E-005 ), #50, 'distance_accuracy_value', 'NONE');
#276 = DATE_AND_TIME ( #245, #244 ) ;
#277 = FACE_OUTER_BOUND ( 'NONE', #12, .T. ) ;
#278 = CARTESIAN_POINT ( 'NONE',  ( 0.0000000000000000000, 1.649999999999999900, -1.750000000000000200 ) ) ;
#279 = EDGE_LOOP ( 'NONE', ( #284 ) ) ;
#280 = CIRCLE ( 'NONE', #322, 1.446999999999999800 ) ;
#281 = CC_DESIGN_DATE_AND_TIME_ASSIGNMENT ( #207, #17, ( #292 ) ) ;
#282 = EDGE_LOOP ( 'NONE', ( #160 ) ) ;
#283 = CARTESIAN_POINT ( 'NONE',  ( 0.0000000000000000000, 0.0000000000000000000, -0.5000000000000000000 ) ) ;
#284 = ORIENTED_EDGE ( 'NONE', *, *, #9, .T. ) ;
#285 = ORIENTED_EDGE ( 'NONE', *, *, #163, .F. ) ;
#286 = DIRECTION ( 'NONE',  ( -1.000000000000000000, 0.0000000000000000000, 0.0000000000000000000 ) ) ;
#287 = DIRECTION ( 'NONE',  ( -1.000000000000000000, 0.0000000000000000000, 0.0000000000000000000 ) ) ;
#288 = VERTEX_POINT ( 'NONE', #56 ) ;
#289 = EDGE_LOOP ( 'NONE', ( #285 ) ) ;
#290 = DIRECTION ( 'NONE',  ( -0.0000000000000000000, -0.0000000000000000000, -1.000000000000000000 ) ) ;
#291 = ORIENTED_EDGE ( 'NONE', *, *, #143, .F. ) ;
#292 = PRODUCT_DEFINITION ( 'UNKNOWN', '', #315, #124 ) ;
#293 = EDGE_LOOP ( 'NONE', ( #8 ) ) ;
#294 = ORIENTED_EDGE ( 'NONE', *, *, #215, .F. ) ;
#295 = FACE_OUTER_BOUND ( 'NONE', #229, .T. ) ;
#296 = CARTESIAN_POINT ( 'NONE',  ( 0.0000000000000000000, 0.0000000000000000000, 0.0000000000000000000 ) ) ;
#297 = SHAPE_DEFINITION_REPRESENTATION ( #42, #306 ) ;
#298 = CIRCLE ( 'NONE', #106, 1.446999999999999800 ) ;
#299 = CARTESIAN_POINT ( 'NONE',  ( 0.0000000000000000000, 0.0000000000000000000, 0.0000000000000000000 ) ) ;
#300 = MANIFOLD_SOLID_BREP ( 'Revolve1', #99 ) ;
#301 = EDGE_LOOP ( 'NONE', ( #266 ) ) ;
#302 = EDGE_LOOP ( 'NONE', ( #291 ) ) ;
#303 = CARTESIAN_POINT ( 'NONE',  ( 0.0000000000000000000, 0.0000000000000000000, -3.000000000000000400 ) ) ;
#304 = APPROVAL_ROLE ( '' ) ;
#305 = CARTESIAN_POINT ( 'NONE',  ( 0.0000000000000000000, 0.0000000000000000000, -0.9495584412271559400 ) ) ;
#306 = ADVANCED_BREP_SHAPE_REPRESENTATION ( '581207338', ( #300, #262 ), #248 ) ;
#307 = APPROVAL_ROLE ( '' ) ;
#308 = APPROVAL_STATUS ( 'not_yet_approved' ) ;
#309 = DATE_TIME_ROLE ( 'classification_date' ) ;
#310 = PERSON_AND_ORGANIZATION_ROLE ( 'classification_officer' ) ;
#311 = SECURITY_CLASSIFICATION_LEVEL ( 'unclassified' ) ;
#312 = CIRCLE ( 'NONE', #317, 1.770000000000000000 ) ;
#313 = PERSON_AND_ORGANIZATION_ROLE ( 'design_supplier' ) ;
#314 = PERSON_AND_ORGANIZATION_ROLE ( 'creator' ) ;
#315 = PRODUCT_DEFINITION_FORMATION_WITH_SPECIFIED_SOURCE ( 'ANY', '', #127, .NOT_KNOWN. ) ;
#316 = DIRECTION ( 'NONE',  ( -1.000000000000000000, 0.0000000000000000000, 0.0000000000000000000 ) ) ;
#317 = AXIS2_PLACEMENT_3D ( 'NONE', #227, #228, #230 ) ;
#318 = DIRECTION ( 'NONE',  ( -0.0000000000000000000, -0.0000000000000000000, -1.000000000000000000 ) ) ;
#319 = DIRECTION ( 'NONE',  ( -0.0000000000000000000, -0.0000000000000000000, -1.000000000000000000 ) ) ;
#320 = FACE_BOUND ( 'NONE', #81, .T. ) ;
#321 = ORIENTED_EDGE ( 'NONE', *, *, #261, .F. ) ;
#322 = AXIS2_PLACEMENT_3D ( 'NONE', #283, #290, #286 ) ;
#323 = ORIENTED_EDGE ( 'NONE', *, *, #136, .T. ) ;
#324 = EDGE_LOOP ( 'NONE', ( #161 ) ) ;
#325 = EDGE_LOOP ( 'NONE', ( #321 ) ) ;
#326 = ADVANCED_FACE ( 'NONE', ( #110, #272 ), #169, .F. ) ;
#327 = EDGE_CURVE ( 'NONE', #288, #288, #212, .T. ) ;
#328 = COORDINATED_UNIVERSAL_TIME_OFFSET ( 5, 0, .BEHIND. ) ;
#329 = FACE_OUTER_BOUND ( 'NONE', #15, .T. ) ;
#330 = CARTESIAN_POINT ( 'NONE',  ( 0.0000000000000000000, 0.0000000000000000000, -1.034411254969541900 ) ) ;
#331 = CIRCLE ( 'NONE', #115, 1.047147186257614300 ) ;
#332 = DIRECTION ( 'NONE',  ( -1.000000000000000000, 0.0000000000000000000, 0.0000000000000000000 ) ) ;
ENDSEC;
END-ISO-10303-21;
