ISO-10303-21;
HEADER;
FILE_DESCRIPTION (( 'STEP AP203' ),
    '1' );
FILE_NAME ('581246080.STEP',
    '2017-07-27T19:44:53',
    ( '' ),
    ( '' ),
    'SwSTEP 2.0',
    'SolidWorks 2017',
    '' );
FILE_SCHEMA (( 'CONFIG_CONTROL_DESIGN' ));
ENDSEC;

DATA;
#1 = ADVANCED_FACE ( 'NONE', ( #7, #272 ), #239, .T. ) ;
#2 = CARTESIAN_POINT ( 'NONE',  ( -7.874015748031496300, 1.971970633272706300E-016, 3.220472440944881500 ) ) ;
#3 = AXIS2_PLACEMENT_3D ( 'NONE', #59, #223, #53 ) ;
#4 = APPROVAL_DATE_TIME ( #279, #118 ) ;
#5 = EDGE_CURVE ( 'NONE', #304, #304, #98, .T. ) ;
#6 = DIRECTION ( 'NONE',  ( 0.0000000000000000000, 0.0000000000000000000, 1.000000000000000000 ) ) ;
#7 = FACE_OUTER_BOUND ( 'NONE', #162, .T. ) ;
#8 = CARTESIAN_POINT ( 'NONE',  ( -13.14566929133858200, 4.295275590551181500, -1.052004355921426400E-015 ) ) ;
#9 = ORIENTED_EDGE ( 'NONE', *, *, #191, .T. ) ;
#10 =( CONVERSION_BASED_UNIT ( 'INCH', #267 ) LENGTH_UNIT ( ) NAMED_UNIT ( #250 ) );
#11 = CARTESIAN_POINT ( 'NONE',  ( -7.874015748031496300, 5.271653543307086100, 0.0000000000000000000 ) ) ;
#12 = SHAPE_DEFINITION_REPRESENTATION ( #204, #141 ) ;
#13 = DIRECTION ( 'NONE',  ( 1.000000000000000000, 0.0000000000000000000, 0.0000000000000000000 ) ) ;
#14 = ORIENTED_EDGE ( 'NONE', *, *, #333, .F. ) ;
#15 = CARTESIAN_POINT ( 'NONE',  ( -7.874015748031496300, 0.0000000000000000000, -3.220472440944881500 ) ) ;
#16 = ORIENTED_EDGE ( 'NONE', *, *, #227, .F. ) ;
#17 =( NAMED_UNIT ( * ) PLANE_ANGLE_UNIT ( ) SI_UNIT ( $, .RADIAN. ) );
#18 =( NAMED_UNIT ( * ) SI_UNIT ( $, .STERADIAN. ) SOLID_ANGLE_UNIT ( ) );
#19 = ORIENTED_EDGE ( 'NONE', *, *, #207, .T. ) ;
#20 = CARTESIAN_POINT ( 'NONE',  ( -16.46456692913385900, 8.590551181102361200, 4.295275590551178800 ) ) ;
#21 = VERTEX_POINT ( 'NONE', #38 ) ;
#22 = AXIS2_PLACEMENT_3D ( 'NONE', #216, #152, #33 ) ;
#23 = CARTESIAN_POINT ( 'NONE',  ( -7.874015748031496300, 0.0000000000000000000, 0.0000000000000000000 ) ) ;
#24 = AXIS2_PLACEMENT_3D ( 'NONE', #23, #27, #89 ) ;
#25 = ORIENTED_EDGE ( 'NONE', *, *, #214, .T. ) ;
#26 = ADVANCED_FACE ( 'NONE', ( #199, #296 ), #175, .T. ) ;
#27 = DIRECTION ( 'NONE',  ( 0.0000000000000000000, -1.000000000000000000, 0.0000000000000000000 ) ) ;
#28 = ORIENTED_EDGE ( 'NONE', *, *, #113, .T. ) ;
#29 = APPLICATION_PROTOCOL_DEFINITION ( 'international standard', 'config_control_design', 1994, #40 ) ;
#30 = CIRCLE ( 'NONE', #212, 4.295275590551179700 ) ;
#31 = DIRECTION ( 'NONE',  ( 1.000000000000000000, 0.0000000000000000000, 0.0000000000000000000 ) ) ;
#32 = ORIENTED_EDGE ( 'NONE', *, *, #291, .T. ) ;
#33 = DIRECTION ( 'NONE',  ( 0.0000000000000000000, -0.0000000000000000000, 1.000000000000000000 ) ) ;
#34 = DIRECTION ( 'NONE',  ( -1.000000000000000000, -0.0000000000000000000, -0.0000000000000000000 ) ) ;
#35 = APPROVAL_DATE_TIME ( #133, #331 ) ;
#36 = PLANE ( 'NONE',  #366 ) ;
#37 = DATE_AND_TIME ( #274, #193 ) ;
#38 = CARTESIAN_POINT ( 'NONE',  ( -3.578740157480316200, 5.271653543307086100, -1.052004355921507400E-015 ) ) ;
#39 = CARTESIAN_POINT ( 'NONE',  ( 0.0000000000000000000, 0.0000000000000000000, 0.0000000000000000000 ) ) ;
#40 = APPLICATION_CONTEXT ( 'configuration controlled 3d designs of mechanical parts and assemblies' ) ;
#41 = FACE_OUTER_BOUND ( 'NONE', #126, .T. ) ;
#42 = DIRECTION ( 'NONE',  ( 1.000000000000000000, 0.0000000000000000000, 0.0000000000000000000 ) ) ;
#43 = DIRECTION ( 'NONE',  ( 1.000000000000000000, 0.0000000000000000000, 0.0000000000000000000 ) ) ;
#44 = DIRECTION ( 'NONE',  ( 1.000000000000000000, 0.0000000000000000000, 0.0000000000000000000 ) ) ;
#45 = EDGE_LOOP ( 'NONE', ( #229 ) ) ;
#46 = CARTESIAN_POINT ( 'NONE',  ( -7.874015748031496300, 0.0000000000000000000, 4.295275590551180600 ) ) ;
#47 = MECHANICAL_CONTEXT ( 'NONE', #40, 'mechanical' ) ;
#48 = CONICAL_SURFACE ( 'NONE', #350, 4.295275590551183200, 0.7853981633974528300 ) ;
#49 = DIRECTION ( 'NONE',  ( 0.0000000000000000000, 0.0000000000000000000, -1.000000000000000000 ) ) ;
#50 = EDGE_LOOP ( 'NONE', ( #25 ) ) ;
#51 = VERTEX_POINT ( 'NONE', #8 ) ;
#52 = FACE_OUTER_BOUND ( 'NONE', #78, .T. ) ;
#53 = DIRECTION ( 'NONE',  ( 0.0000000000000000000, 0.0000000000000000000, -1.000000000000000000 ) ) ;
#54 = FACE_BOUND ( 'NONE', #186, .T. ) ;
#55 = PERSON ( 'UNSPECIFIED', 'UNSPECIFIED', 'UNSPECIFIED', ('UNSPECIFIED'), ('UNSPECIFIED'), ('UNSPECIFIED') ) ;
#56 = ADVANCED_FACE ( 'NONE', ( #314, #58 ), #268, .T. ) ;
#57 = AXIS2_PLACEMENT_3D ( 'NONE', #287, #368, #283 ) ;
#58 = FACE_BOUND ( 'NONE', #270, .T. ) ;
#59 = CARTESIAN_POINT ( 'NONE',  ( -1.122047244094488200, 0.0000000000000000000, 0.0000000000000000000 ) ) ;
#60 = PERSON_AND_ORGANIZATION ( #55, #138 ) ;
#61 = PERSON_AND_ORGANIZATION_ROLE ( 'design_owner' ) ;
#62 = LOCAL_TIME ( 15, 44, 53.00000000000000000, #148 ) ;
#63 = CIRCLE ( 'NONE', #340, 3.937007874015748100 ) ;
#64 = AXIS2_PLACEMENT_3D ( 'NONE', #130, #13, #336 ) ;
#65 = DIRECTION ( 'NONE',  ( 0.0000000000000000000, 0.0000000000000000000, -1.000000000000000000 ) ) ;
#66 = DIRECTION ( 'NONE',  ( 1.000000000000000000, -0.0000000000000000000, -0.0000000000000000000 ) ) ;
#67 = CARTESIAN_POINT ( 'NONE',  ( -13.50393700787401700, 0.0000000000000000000, 0.0000000000000000000 ) ) ;
#68 = VERTEX_POINT ( 'NONE', #231 ) ;
#69 = CARTESIAN_POINT ( 'NONE',  ( -1.433070866141735100, 6.440944881889761200, -3.220472440944881900 ) ) ;
#70 = ORIENTED_EDGE ( 'NONE', *, *, #207, .F. ) ;
#71 = AXIS2_PLACEMENT_3D ( 'NONE', #67, #122, #210 ) ;
#72 = EDGE_LOOP ( 'NONE', ( #346 ) ) ;
#73 = DIRECTION ( 'NONE',  ( -1.000000000000000000, 0.0000000000000000000, 0.0000000000000000000 ) ) ;
#74 = FACE_OUTER_BOUND ( 'NONE', #244, .T. ) ;
#75 = APPLICATION_CONTEXT ( 'configuration controlled 3d designs of mechanical parts and assemblies' ) ;
#76 = DIRECTION ( 'NONE',  ( -1.000000000000000000, -0.0000000000000000000, -0.0000000000000000000 ) ) ;
#77 = CIRCLE ( 'NONE', #83, 3.937007874015748100 ) ;
#78 = EDGE_LOOP ( 'NONE', ( #157 ) ) ;
#79 = CALENDAR_DATE ( 2017, 27, 7 ) ;
#80 = CIRCLE ( 'NONE', #81, 3.937007874015748100 ) ;
#81 = AXIS2_PLACEMENT_3D ( 'NONE', #95, #264, #189 ) ;
#82 = EDGE_LOOP ( 'NONE', ( #149, #384 ) ) ;
#83 = AXIS2_PLACEMENT_3D ( 'NONE', #219, #31, #156 ) ;
#84 = CC_DESIGN_PERSON_AND_ORGANIZATION_ASSIGNMENT ( #245, #139, ( #134 ) ) ;
#85 = EDGE_CURVE ( 'NONE', #235, #235, #305, .T. ) ;
#86 = ORIENTED_EDGE ( 'NONE', *, *, #191, .F. ) ;
#87 = ADVANCED_FACE ( 'NONE', ( #101, #52 ), #236, .F. ) ;
#88 = COORDINATED_UNIVERSAL_TIME_OFFSET ( 5, 0, .BEHIND. ) ;
#89 = DIRECTION ( 'NONE',  ( 0.0000000000000000000, 0.0000000000000000000, -1.000000000000000000 ) ) ;
#90 = FACE_OUTER_BOUND ( 'NONE', #354, .T. ) ;
#91 = EDGE_LOOP ( 'NONE', ( #306, #114 ) ) ;
#92 = APPLICATION_PROTOCOL_DEFINITION ( 'international standard', 'config_control_design', 1994, #75 ) ;
#93 = DIRECTION ( 'NONE',  ( 1.000000000000000000, 0.0000000000000000000, -0.0000000000000000000 ) ) ;
#94 = CARTESIAN_POINT ( 'NONE',  ( -7.874015748031496300, 0.0000000000000000000, -3.220472440944881500 ) ) ;
#95 = CARTESIAN_POINT ( 'NONE',  ( -15.74803149606299300, 0.0000000000000000000, 0.0000000000000000000 ) ) ;
#96 = ORIENTED_EDGE ( 'NONE', *, *, #330, .T. ) ;
#97 = APPROVAL_STATUS ( 'not_yet_approved' ) ;
#98 = CIRCLE ( 'NONE', #71, 3.937007874015748100 ) ;
#99 = CARTESIAN_POINT ( 'NONE',  ( -2.602362204724406600, 4.295275590551179700, -1.052004355921425800E-015 ) ) ;
#100 = VERTEX_POINT ( 'NONE', #238 ) ;
#101 = FACE_OUTER_BOUND ( 'NONE', #91, .T. ) ;
#102 = EDGE_LOOP ( 'NONE', ( #258 ) ) ;
#103 = FACE_BOUND ( 'NONE', #171, .T. ) ;
#104 = EDGE_LOOP ( 'NONE', ( #362 ) ) ;
#105 = APPROVAL_ROLE ( '' ) ;
#106 = CC_DESIGN_APPROVAL ( #118, ( #134 ) ) ;
#107 = PERSON_AND_ORGANIZATION_ROLE ( 'creator' ) ;
#108 = CARTESIAN_POINT ( 'NONE',  ( -16.46456692913385900, 8.590551181102361200, -4.295275590551178800 ) ) ;
#109 = DIRECTION ( 'NONE',  ( 0.0000000000000000000, 0.0000000000000000000, -1.000000000000000000 ) ) ;
#110 = ADVANCED_FACE ( 'NONE', ( #135, #74 ), #282, .T. ) ;
#111 = DIRECTION ( 'NONE',  ( 0.0000000000000000000, 1.000000000000000000, 0.0000000000000000000 ) ) ;
#112 = DIRECTION ( 'NONE',  ( 0.0000000000000000000, 0.0000000000000000000, 1.000000000000000000 ) ) ;
#113 = EDGE_CURVE ( 'NONE', #261, #196, #357, .T. ) ;
#114 = ORIENTED_EDGE ( 'NONE', *, *, #184, .T. ) ;
#115 = FACE_OUTER_BOUND ( 'NONE', #45, .T. ) ;
#116 = CALENDAR_DATE ( 2017, 27, 7 ) ;
#117 = CARTESIAN_POINT ( 'NONE',  ( -7.874015748031496300, 0.0000000000000000000, 4.295275590551180600 ) ) ;
#118 = APPROVAL ( #132, 'UNSPECIFIED' ) ;
#119 = ADVANCED_FACE ( 'NONE', ( #217, #367 ), #48, .T. ) ;
#120 = DIRECTION ( 'NONE',  ( -1.000000000000000000, -0.0000000000000000000, 0.0000000000000000000 ) ) ;
#121 = PRODUCT_RELATED_PRODUCT_CATEGORY ( 'detail', '', ( #131 ) ) ;
#122 = DIRECTION ( 'NONE',  ( -1.000000000000000000, -0.0000000000000000000, -0.0000000000000000000 ) ) ;
#123 = EDGE_LOOP ( 'NONE', ( #266 ) ) ;
#124 = DATE_TIME_ROLE ( 'creation_date' ) ;
#125 = CARTESIAN_POINT ( 'NONE',  ( 0.0000000000000000000, 0.0000000000000000000, -3.220472440944881900 ) ) ;
#126 = EDGE_LOOP ( 'NONE', ( #345 ) ) ;
#127 = CARTESIAN_POINT ( 'NONE',  ( -7.874015748031496300, 0.0000000000000000000, -4.295275590551180600 ) ) ;
#128 = CARTESIAN_POINT ( 'NONE',  ( -7.874015748031496300, 5.629921259842520300, -3.937007874015748100 ) ) ;
#129 = CLOSED_SHELL ( 'NONE', ( #369, #252, #344, #87, #181, #110, #151, #119, #56, #26, #284, #309, #1 ) ) ;
#130 = CARTESIAN_POINT ( 'NONE',  ( -15.74803149606299300, 0.0000000000000000000, 0.0000000000000000000 ) ) ;
#131 = PRODUCT ( '581246080', '581246080', '', ( #47 ) ) ;
#132 = APPROVAL_STATUS ( 'not_yet_approved' ) ;
#133 = DATE_AND_TIME ( #318, #343 ) ;
#134 = PRODUCT_DEFINITION_FORMATION_WITH_SPECIFIED_SOURCE ( 'ANY', '', #131, .NOT_KNOWN. ) ;
#135 = FACE_OUTER_BOUND ( 'NONE', #123, .T. ) ;
#136 = DIRECTION ( 'NONE',  ( 0.0000000000000000000, 0.0000000000000000000, -1.000000000000000000 ) ) ;
#137 = APPROVAL_ROLE ( '' ) ;
#138 = ORGANIZATION ( 'UNSPECIFIED', 'UNSPECIFIED', '' ) ;
#139 = PERSON_AND_ORGANIZATION_ROLE ( 'creator' ) ;
#140 = AXIS2_PLACEMENT_3D ( 'NONE', #225, #221, #211 ) ;
#141 = ADVANCED_BREP_SHAPE_REPRESENTATION ( '581246080', ( #277, #351 ), #254 ) ;
#142 = PERSON_AND_ORGANIZATION_ROLE ( 'design_supplier' ) ;
#143 = ORIENTED_EDGE ( 'NONE', *, *, #161, .F. ) ;
#144 = CARTESIAN_POINT ( 'NONE',  ( -7.874015748031496300, 0.0000000000000000000, -3.220472440944881500 ) ) ;
#145 = EDGE_LOOP ( 'NONE', ( #32 ) ) ;
#146 = CARTESIAN_POINT ( 'NONE',  ( -7.874015748031496300, 0.0000000000000000000, -4.295275590551180600 ) ) ;
#147 = AXIS2_PLACEMENT_3D ( 'NONE', #375, #339, #224 ) ;
#148 = COORDINATED_UNIVERSAL_TIME_OFFSET ( 5, 0, .BEHIND. ) ;
#149 = ORIENTED_EDGE ( 'NONE', *, *, #113, .F. ) ;
#150 = LOCAL_TIME ( 15, 44, 53.00000000000000000, #159 ) ;
#151 = ADVANCED_FACE ( 'NONE', ( #205, #370 ), #230, .T. ) ;
#152 = DIRECTION ( 'NONE',  ( 0.0000000000000000000, 1.000000000000000000, 0.0000000000000000000 ) ) ;
#153 = FACE_OUTER_BOUND ( 'NONE', #288, .T. ) ;
#154 = CC_DESIGN_DATE_AND_TIME_ASSIGNMENT ( #233, #124, ( #363 ) ) ;
#155 = FACE_OUTER_BOUND ( 'NONE', #265, .T. ) ;
#156 = DIRECTION ( 'NONE',  ( 0.0000000000000000000, 0.0000000000000000000, -1.000000000000000000 ) ) ;
#157 = ORIENTED_EDGE ( 'NONE', *, *, #214, .F. ) ;
#158 = SECURITY_CLASSIFICATION_LEVEL ( 'unclassified' ) ;
#159 = COORDINATED_UNIVERSAL_TIME_OFFSET ( 5, 0, .BEHIND. ) ;
#160 = DATE_TIME_ROLE ( 'classification_date' ) ;
#161 = EDGE_CURVE ( 'NONE', #320, #320, #30, .T. ) ;
#162 = EDGE_LOOP ( 'NONE', ( #14 ) ) ;
#163 = CARTESIAN_POINT ( 'NONE',  ( 0.0000000000000000000, 0.0000000000000000000, 0.0000000000000000000 ) ) ;
#164 =( LENGTH_UNIT ( ) NAMED_UNIT ( * ) SI_UNIT ( $, .METRE. ) );
#165 = VERTEX_POINT ( 'NONE', #352 ) ;
#166 = PERSON_AND_ORGANIZATION_ROLE ( 'classification_officer' ) ;
#167 = ORIENTED_EDGE ( 'NONE', *, *, #292, .F. ) ;
#168 = DIRECTION ( 'NONE',  ( 1.000000000000000000, 0.0000000000000000000, 0.0000000000000000000 ) ) ;
#169 = FACE_BOUND ( 'NONE', #298, .T. ) ;
#170 = AXIS2_PLACEMENT_3D ( 'NONE', #358, #290, #200 ) ;
#171 = EDGE_LOOP ( 'NONE', ( #297 ) ) ;
#172 = APPROVAL_STATUS ( 'not_yet_approved' ) ;
#173 = CARTESIAN_POINT ( 'NONE',  ( 0.03937007874015748000, 0.0000000000000000000, 0.0000000000000000000 ) ) ;
#174 = VERTEX_POINT ( 'NONE', #125 ) ;
#175 = CYLINDRICAL_SURFACE ( 'NONE', #57, 3.937007874015748100 ) ;
#176 = ORIENTED_EDGE ( 'NONE', *, *, #85, .T. ) ;
#177 = APPROVAL_PERSON_ORGANIZATION ( #359, #247, #251 ) ;
#178 = CIRCLE ( 'NONE', #372, 3.937007874015748100 ) ;
#179 = CC_DESIGN_PERSON_AND_ORGANIZATION_ASSIGNMENT ( #365, #107, ( #363 ) ) ;
#180 = ORIENTED_EDGE ( 'NONE', *, *, #333, .T. ) ;
#181 = ADVANCED_FACE ( 'NONE', ( #41, #153 ), #328, .T. ) ;
#182 = EDGE_CURVE ( 'NONE', #100, #100, #80, .T. ) ;
#183 = EDGE_CURVE ( 'NONE', #255, #206, #323, .T. ) ;
#184 = EDGE_CURVE ( 'NONE', #206, #255, #228, .T. ) ;
#185 = DATE_AND_TIME ( #259, #62 ) ;
#186 = EDGE_LOOP ( 'NONE', ( #9 ) ) ;
#187 = DIRECTION ( 'NONE',  ( 1.000000000000000000, 0.0000000000000000000, 0.0000000000000000000 ) ) ;
#188 = CARTESIAN_POINT ( 'NONE',  ( -7.874015748031496300, 7.874015748031496300, 0.0000000000000000000 ) ) ;
#189 = DIRECTION ( 'NONE',  ( 0.0000000000000000000, 0.0000000000000000000, -1.000000000000000000 ) ) ;
#190 = ORIENTED_EDGE ( 'NONE', *, *, #5, .F. ) ;
#191 = EDGE_CURVE ( 'NONE', #68, #68, #316, .T. ) ;
#192 = DIRECTION ( 'NONE',  ( 0.0000000000000000000, 0.0000000000000000000, -1.000000000000000000 ) ) ;
#193 = LOCAL_TIME ( 15, 44, 53.00000000000000000, #88 ) ;
#194 = CARTESIAN_POINT ( 'NONE',  ( -7.874015748031496300, 1.971970633272706300E-016, 3.220472440944881500 ) ) ;
#195 = CARTESIAN_POINT ( 'NONE',  ( -7.874015748031496300, 0.0000000000000000000, 4.295275590551180600 ) ) ;
#196 = VERTEX_POINT ( 'NONE', #127 ) ;
#197 = CARTESIAN_POINT ( 'NONE',  ( -13.14566929133858200, 0.0000000000000000000, 0.0000000000000000000 ) ) ;
#198 = SECURITY_CLASSIFICATION ( '', '', #158 ) ;
#199 = FACE_OUTER_BOUND ( 'NONE', #302, .T. ) ;
#200 = DIRECTION ( 'NONE',  ( 0.0000000000000000000, 0.0000000000000000000, -1.000000000000000000 ) ) ;
#201 = DIRECTION ( 'NONE',  ( 1.000000000000000000, 0.0000000000000000000, -2.449212707644939400E-016 ) ) ;
#202 = COORDINATED_UNIVERSAL_TIME_OFFSET ( 5, 0, .BEHIND. ) ;
#203 = CARTESIAN_POINT ( 'NONE',  ( 0.7165354330708648700, 8.590551181102361200, 4.295275590551178800 ) ) ;
#204 = PRODUCT_DEFINITION_SHAPE ( 'NONE', 'NONE',  #363 ) ;
#205 = FACE_OUTER_BOUND ( 'NONE', #253, .T. ) ;
#206 = VERTEX_POINT ( 'NONE', #194 ) ;
#207 = EDGE_CURVE ( 'NONE', #335, #335, #178, .T. ) ;
#208 = CC_DESIGN_PERSON_AND_ORGANIZATION_ASSIGNMENT ( #338, #166, ( #198 ) ) ;
#209 = EDGE_LOOP ( 'NONE', ( #86 ) ) ;
#210 = DIRECTION ( 'NONE',  ( 0.0000000000000000000, 0.0000000000000000000, -1.000000000000000000 ) ) ;
#211 = DIRECTION ( 'NONE',  ( 0.0000000000000000000, 0.0000000000000000000, -1.000000000000000000 ) ) ;
#212 = AXIS2_PLACEMENT_3D ( 'NONE', #382, #66, #234 ) ;
#213 = ORIENTED_EDGE ( 'NONE', *, *, #5, .T. ) ;
#214 = EDGE_CURVE ( 'NONE', #381, #381, #220, .T. ) ;
#215 = COORDINATED_UNIVERSAL_TIME_OFFSET ( 5, 0, .BEHIND. ) ;
#216 = CARTESIAN_POINT ( 'NONE',  ( -5.905511811023622200, 7.874015748031496300, -4.821284857568425000E-016 ) ) ;
#217 = FACE_BOUND ( 'NONE', #307, .T. ) ;
#218 = CC_DESIGN_PERSON_AND_ORGANIZATION_ASSIGNMENT ( #60, #142, ( #134 ) ) ;
#219 = CARTESIAN_POINT ( 'NONE',  ( -2.244094488188976400, 0.0000000000000000000, 0.0000000000000000000 ) ) ;
#220 = CIRCLE ( 'NONE', #147, 3.220472440944881900 ) ;
#221 = DIRECTION ( 'NONE',  ( 1.000000000000000000, 0.0000000000000000000, 0.0000000000000000000 ) ) ;
#222 = LOCAL_TIME ( 15, 44, 53.00000000000000000, #202 ) ;
#223 = DIRECTION ( 'NONE',  ( 1.000000000000000000, 0.0000000000000000000, 0.0000000000000000000 ) ) ;
#224 = DIRECTION ( 'NONE',  ( 0.0000000000000000000, 0.0000000000000000000, -1.000000000000000000 ) ) ;
#225 = CARTESIAN_POINT ( 'NONE',  ( -14.62598425196850400, 0.0000000000000000000, 0.0000000000000000000 ) ) ;
#226 = CARTESIAN_POINT ( 'NONE',  ( -7.874015748031496300, 7.874015748031496300, -3.937007874015748100 ) ) ;
#227 = EDGE_CURVE ( 'NONE', #165, #165, #77, .T. ) ;
#228 =( BOUNDED_CURVE ( )  B_SPLINE_CURVE ( 3, ( #376, #355, #243, #15 ),
 .UNSPECIFIED., .F., .T. ) 
 B_SPLINE_CURVE_WITH_KNOTS ( ( 4, 4 ),
 ( 1.570796326794896600, 4.712388980384689700 ),
 .UNSPECIFIED. ) 
 CURVE ( )  GEOMETRIC_REPRESENTATION_ITEM ( )  RATIONAL_B_SPLINE_CURVE ( ( 1.000000000000000000, 0.3333333333333333700, 0.3333333333333333700, 1.000000000000000000 ) ) 
 REPRESENTATION_ITEM ( '' )  );
#229 = ORIENTED_EDGE ( 'NONE', *, *, #182, .T. ) ;
#230 = PLANE ( 'NONE',  #22 ) ;
#231 = CARTESIAN_POINT ( 'NONE',  ( -15.74803149606299300, 0.0000000000000000000, -3.220472440944881900 ) ) ;
#232 = CC_DESIGN_SECURITY_CLASSIFICATION ( #198, ( #134 ) ) ;
#233 = DATE_AND_TIME ( #79, #150 ) ;
#234 = DIRECTION ( 'NONE',  ( -1.272024547004075400E-016, 1.000000000000000000, -2.449212707644750100E-016 ) ) ;
#235 = VERTEX_POINT ( 'NONE', #380 ) ;
#236 = CYLINDRICAL_SURFACE ( 'NONE', #24, 3.220472440944881900 ) ;
#237 = CYLINDRICAL_SURFACE ( 'NONE', #256, 4.295275590551181500 ) ;
#238 = CARTESIAN_POINT ( 'NONE',  ( -15.74803149606299300, 0.0000000000000000000, -3.937007874015748100 ) ) ;
#239 = CYLINDRICAL_SURFACE ( 'NONE', #327, 4.295275590551181500 ) ;
#240 = AXIS2_PLACEMENT_3D ( 'NONE', #39, #42, #49 ) ;
#241 = CC_DESIGN_APPROVAL ( #247, ( #198 ) ) ;
#242 = VERTEX_POINT ( 'NONE', #128 ) ;
#243 = CARTESIAN_POINT ( 'NONE',  ( -14.31496062992125900, 6.440944881889763000, -3.220472440944880200 ) ) ;
#244 = EDGE_LOOP ( 'NONE', ( #313 ) ) ;
#245 = PERSON_AND_ORGANIZATION ( #55, #138 ) ;
#246 = AXIS2_PLACEMENT_3D ( 'NONE', #303, #76, #321 ) ;
#247 = APPROVAL ( #172, 'UNSPECIFIED' ) ;
#248 = EDGE_LOOP ( 'NONE', ( #167 ) ) ;
#249 = DESIGN_CONTEXT ( 'detailed design', #75, 'design' ) ;
#250 = DIMENSIONAL_EXPONENTS ( 1.000000000000000000, 0.0000000000000000000, 0.0000000000000000000, 0.0000000000000000000, 0.0000000000000000000, 0.0000000000000000000, 0.0000000000000000000 ) ;
#251 = APPROVAL_ROLE ( '' ) ;
#252 = ADVANCED_FACE ( 'NONE', ( #115, #54 ), #325, .T. ) ;
#253 = EDGE_LOOP ( 'NONE', ( #19 ) ) ;
#254 =( GEOMETRIC_REPRESENTATION_CONTEXT ( 3 ) GLOBAL_UNCERTAINTY_ASSIGNED_CONTEXT ( ( #342 ) ) GLOBAL_UNIT_ASSIGNED_CONTEXT ( ( #10, #17, #18 ) ) REPRESENTATION_CONTEXT ( 'NONE', 'WORKASPACE' ) );
#255 = VERTEX_POINT ( 'NONE', #94 ) ;
#256 = AXIS2_PLACEMENT_3D ( 'NONE', #299, #187, #319 ) ;
#257 = CC_DESIGN_DATE_AND_TIME_ASSIGNMENT ( #37, #160, ( #198 ) ) ;
#258 = ORIENTED_EDGE ( 'NONE', *, *, #322, .F. ) ;
#259 = CALENDAR_DATE ( 2017, 27, 7 ) ;
#260 = CARTESIAN_POINT ( 'NONE',  ( 0.0000000000000000000, 0.0000000000000000000, 0.0000000000000000000 ) ) ;
#261 = VERTEX_POINT ( 'NONE', #195 ) ;
#262 = CARTESIAN_POINT ( 'NONE',  ( -7.874015748031496300, 5.629921259842520300, 0.0000000000000000000 ) ) ;
#263 = AXIS2_PLACEMENT_3D ( 'NONE', #360, #73, #6 ) ;
#264 = DIRECTION ( 'NONE',  ( -1.000000000000000000, -0.0000000000000000000, -0.0000000000000000000 ) ) ;
#265 = EDGE_LOOP ( 'NONE', ( #180 ) ) ;
#266 = ORIENTED_EDGE ( 'NONE', *, *, #227, .T. ) ;
#267 = LENGTH_MEASURE_WITH_UNIT ( LENGTH_MEASURE( 0.02539999999999999900 ), #164 );
#268 = CONICAL_SURFACE ( 'NONE', #377, 4.295275590551179700, 0.7853981633974536100 ) ;
#269 = DIRECTION ( 'NONE',  ( 0.0000000000000000000, 1.000000000000000000, 0.0000000000000000000 ) ) ;
#270 = EDGE_LOOP ( 'NONE', ( #16 ) ) ;
#271 = FACE_OUTER_BOUND ( 'NONE', #209, .T. ) ;
#272 = FACE_OUTER_BOUND ( 'NONE', #82, .T. ) ;
#273 = CARTESIAN_POINT ( 'NONE',  ( -13.50393700787401700, 0.0000000000000000000, -3.937007874015748100 ) ) ;
#274 = CALENDAR_DATE ( 2017, 27, 7 ) ;
#275 = DIRECTION ( 'NONE',  ( -0.0000000000000000000, -1.000000000000000000, -0.0000000000000000000 ) ) ;
#276 = CC_DESIGN_PERSON_AND_ORGANIZATION_ASSIGNMENT ( #286, #61, ( #131 ) ) ;
#277 = MANIFOLD_SOLID_BREP ( '1', #129 ) ;
#278 = FACE_BOUND ( 'NONE', #102, .T. ) ;
#279 = DATE_AND_TIME ( #116, #222 ) ;
#280 = AXIS2_PLACEMENT_3D ( 'NONE', #260, #34, #65 ) ;
#281 = APPROVAL_PERSON_ORGANIZATION ( #378, #331, #105 ) ;
#282 = CYLINDRICAL_SURFACE ( 'NONE', #3, 3.937007874015748100 ) ;
#283 = DIRECTION ( 'NONE',  ( 0.0000000000000000000, 0.0000000000000000000, -1.000000000000000000 ) ) ;
#284 = ADVANCED_FACE ( 'NONE', ( #348, #90, #341 ), #237, .T. ) ;
#285 = PERSON_AND_ORGANIZATION ( #55, #138 ) ;
#286 = PERSON_AND_ORGANIZATION ( #55, #138 ) ;
#287 = CARTESIAN_POINT ( 'NONE',  ( -7.874015748031496300, 6.751968503937008300, 0.0000000000000000000 ) ) ;
#288 = EDGE_LOOP ( 'NONE', ( #213 ) ) ;
#289 = CONICAL_SURFACE ( 'NONE', #170, 4.295275590551180600, 0.7853981633974475000 ) ;
#290 = DIRECTION ( 'NONE',  ( 0.0000000000000000000, -1.000000000000000000, 0.0000000000000000000 ) ) ;
#291 = EDGE_CURVE ( 'NONE', #51, #51, #385, .T. ) ;
#292 = EDGE_CURVE ( 'NONE', #174, #174, #374, .T. ) ;
#293 = CARTESIAN_POINT ( 'NONE',  ( -7.874015748031496300, 2.635826771653544000, 0.0000000000000000000 ) ) ;
#294 = DIRECTION ( 'NONE',  ( 0.0000000000000000000, 0.0000000000000000000, -1.000000000000000000 ) ) ;
#295 = APPROVAL_PERSON_ORGANIZATION ( #285, #118, #137 ) ;
#296 = FACE_OUTER_BOUND ( 'NONE', #104, .T. ) ;
#297 = ORIENTED_EDGE ( 'NONE', *, *, #292, .T. ) ;
#298 = EDGE_LOOP ( 'NONE', ( #373, #324 ) ) ;
#299 = CARTESIAN_POINT ( 'NONE',  ( -7.874015748031496300, 0.0000000000000000000, 0.0000000000000000000 ) ) ;
#300 = DIRECTION ( 'NONE',  ( 0.0000000000000000000, 1.000000000000000000, 0.0000000000000000000 ) ) ;
#301 = CIRCLE ( 'NONE', #310, 4.295275590551180600 ) ;
#302 = EDGE_LOOP ( 'NONE', ( #70 ) ) ;
#303 = CARTESIAN_POINT ( 'NONE',  ( -13.14566929133858200, 0.0000000000000000000, 0.0000000000000000000 ) ) ;
#304 = VERTEX_POINT ( 'NONE', #273 ) ;
#305 = CIRCLE ( 'NONE', #240, 3.937007874015748100 ) ;
#306 = ORIENTED_EDGE ( 'NONE', *, *, #183, .T. ) ;
#307 = EDGE_LOOP ( 'NONE', ( #190 ) ) ;
#308 = AXIS2_PLACEMENT_3D ( 'NONE', #173, #44, #109 ) ;
#309 = ADVANCED_FACE ( 'NONE', ( #278, #155 ), #289, .T. ) ;
#310 = AXIS2_PLACEMENT_3D ( 'NONE', #11, #269, #201 ) ;
#311 = EDGE_LOOP ( 'NONE', ( #28, #96 ) ) ;
#312 =( BOUNDED_CURVE ( )  B_SPLINE_CURVE ( 3, ( #349, #356, #203, #46 ),
 .UNSPECIFIED., .F., .T. ) 
 B_SPLINE_CURVE_WITH_KNOTS ( ( 4, 4 ),
 ( 1.570796326794896600, 4.712388980384689700 ),
 .UNSPECIFIED. ) 
 CURVE ( )  GEOMETRIC_REPRESENTATION_ITEM ( )  RATIONAL_B_SPLINE_CURVE ( ( 1.000000000000000000, 0.3333333333333333700, 0.3333333333333333700, 1.000000000000000000 ) ) 
 REPRESENTATION_ITEM ( '' )  );
#313 = ORIENTED_EDGE ( 'NONE', *, *, #85, .F. ) ;
#314 = FACE_OUTER_BOUND ( 'NONE', #72, .T. ) ;
#315 = EDGE_LOOP ( 'NONE', ( #176 ) ) ;
#316 = CIRCLE ( 'NONE', #64, 3.220472440944881900 ) ;
#317 = CARTESIAN_POINT ( 'NONE',  ( -7.874015748031496300, 7.874015748031496300, -3.220472440944881900 ) ) ;
#318 = CALENDAR_DATE ( 2017, 27, 7 ) ;
#319 = DIRECTION ( 'NONE',  ( 0.0000000000000000000, 0.0000000000000000000, -1.000000000000000000 ) ) ;
#320 = VERTEX_POINT ( 'NONE', #99 ) ;
#321 = DIRECTION ( 'NONE',  ( 0.0000000000000000000, 1.000000000000000000, -2.449212707644750600E-016 ) ) ;
#322 = EDGE_CURVE ( 'NONE', #242, #242, #63, .T. ) ;
#323 =( BOUNDED_CURVE ( )  B_SPLINE_CURVE ( 3, ( #144, #69, #353, #2 ),
 .UNSPECIFIED., .F., .T. ) 
 B_SPLINE_CURVE_WITH_KNOTS ( ( 4, 4 ),
 ( 1.570796326794896600, 4.712388980384689700 ),
 .UNSPECIFIED. ) 
 CURVE ( )  GEOMETRIC_REPRESENTATION_ITEM ( )  RATIONAL_B_SPLINE_CURVE ( ( 1.000000000000000000, 0.3333333333333333700, 0.3333333333333333700, 1.000000000000000000 ) ) 
 REPRESENTATION_ITEM ( '' )  );
#324 = ORIENTED_EDGE ( 'NONE', *, *, #183, .F. ) ;
#325 = PLANE ( 'NONE',  #263 ) ;
#326 = CC_DESIGN_APPROVAL ( #331, ( #363 ) ) ;
#327 = AXIS2_PLACEMENT_3D ( 'NONE', #293, #275, #192 ) ;
#328 = CYLINDRICAL_SURFACE ( 'NONE', #140, 3.937007874015748100 ) ;
#329 = FACE_OUTER_BOUND ( 'NONE', #248, .T. ) ;
#330 = EDGE_CURVE ( 'NONE', #196, #261, #312, .T. ) ;
#331 = APPROVAL ( #97, 'UNSPECIFIED' ) ;
#332 = DIRECTION ( 'NONE',  ( 0.0000000000000000000, 0.0000000000000000000, -1.000000000000000000 ) ) ;
#333 = EDGE_CURVE ( 'NONE', #21, #21, #301, .T. ) ;
#334 = DIRECTION ( 'NONE',  ( 0.0000000000000000000, 0.0000000000000000000, 1.000000000000000000 ) ) ;
#335 = VERTEX_POINT ( 'NONE', #226 ) ;
#336 = DIRECTION ( 'NONE',  ( 0.0000000000000000000, 0.0000000000000000000, -1.000000000000000000 ) ) ;
#337 = EDGE_LOOP ( 'NONE', ( #143 ) ) ;
#338 = PERSON_AND_ORGANIZATION ( #55, #138 ) ;
#339 = DIRECTION ( 'NONE',  ( 0.0000000000000000000, -1.000000000000000000, 0.0000000000000000000 ) ) ;
#340 = AXIS2_PLACEMENT_3D ( 'NONE', #262, #111, #364 ) ;
#341 = FACE_OUTER_BOUND ( 'NONE', #337, .T. ) ;
#342 = UNCERTAINTY_MEASURE_WITH_UNIT (LENGTH_MEASURE( 1.000000000000000100E-005 ), #10, 'distance_accuracy_value', 'NONE');
#343 = LOCAL_TIME ( 15, 44, 53.00000000000000000, #215 ) ;
#344 = ADVANCED_FACE ( 'NONE', ( #383, #103 ), #36, .T. ) ;
#345 = ORIENTED_EDGE ( 'NONE', *, *, #182, .F. ) ;
#346 = ORIENTED_EDGE ( 'NONE', *, *, #161, .T. ) ;
#347 = APPROVAL_DATE_TIME ( #185, #247 ) ;
#348 = FACE_BOUND ( 'NONE', #311, .T. ) ;
#349 = CARTESIAN_POINT ( 'NONE',  ( -7.874015748031496300, 0.0000000000000000000, -4.295275590551180600 ) ) ;
#350 = AXIS2_PLACEMENT_3D ( 'NONE', #197, #93, #294 ) ;
#351 = AXIS2_PLACEMENT_3D ( 'NONE', #163, #334, #43 ) ;
#352 = CARTESIAN_POINT ( 'NONE',  ( -2.244094488188976400, 0.0000000000000000000, -3.937007874015748100 ) ) ;
#353 = CARTESIAN_POINT ( 'NONE',  ( -1.433070866141733700, 6.440944881889763000, 3.220472440944880200 ) ) ;
#354 = EDGE_LOOP ( 'NONE', ( #386 ) ) ;
#355 = CARTESIAN_POINT ( 'NONE',  ( -14.31496062992125800, 6.440944881889761200, 3.220472440944881900 ) ) ;
#356 = CARTESIAN_POINT ( 'NONE',  ( 0.7165354330708636500, 8.590551181102361200, -4.295275590551180600 ) ) ;
#357 =( BOUNDED_CURVE ( )  B_SPLINE_CURVE ( 3, ( #117, #20, #108, #146 ),
 .UNSPECIFIED., .F., .F. ) 
 B_SPLINE_CURVE_WITH_KNOTS ( ( 4, 4 ),
 ( 1.570796326794896800, 4.712388980384689700 ),
 .UNSPECIFIED. ) 
 CURVE ( )  GEOMETRIC_REPRESENTATION_ITEM ( )  RATIONAL_B_SPLINE_CURVE ( ( 1.000000000000000000, 0.3333333333333333700, 0.3333333333333333700, 1.000000000000000000 ) ) 
 REPRESENTATION_ITEM ( '' )  );
#358 = CARTESIAN_POINT ( 'NONE',  ( -7.874015748031496300, 5.271653543307086100, 0.0000000000000000000 ) ) ;
#359 = PERSON_AND_ORGANIZATION ( #55, #138 ) ;
#360 = CARTESIAN_POINT ( 'NONE',  ( -15.74803149606299300, 1.968503937007874100, -4.821284857568425000E-016 ) ) ;
#361 = CYLINDRICAL_SURFACE ( 'NONE', #308, 3.220472440944881900 ) ;
#362 = ORIENTED_EDGE ( 'NONE', *, *, #322, .T. ) ;
#363 = PRODUCT_DEFINITION ( 'UNKNOWN', '', #134, #249 ) ;
#364 = DIRECTION ( 'NONE',  ( 0.0000000000000000000, 0.0000000000000000000, -1.000000000000000000 ) ) ;
#365 = PERSON_AND_ORGANIZATION ( #55, #138 ) ;
#366 = AXIS2_PLACEMENT_3D ( 'NONE', #379, #168, #136 ) ;
#367 = FACE_OUTER_BOUND ( 'NONE', #145, .T. ) ;
#368 = DIRECTION ( 'NONE',  ( -0.0000000000000000000, -1.000000000000000000, -0.0000000000000000000 ) ) ;
#369 = ADVANCED_FACE ( 'NONE', ( #169, #271, #329 ), #361, .F. ) ;
#370 = FACE_BOUND ( 'NONE', #50, .T. ) ;
#371 = CARTESIAN_POINT ( 'NONE',  ( -2.602362204724405700, 0.0000000000000000000, 0.0000000000000000000 ) ) ;
#372 = AXIS2_PLACEMENT_3D ( 'NONE', #188, #300, #332 ) ;
#373 = ORIENTED_EDGE ( 'NONE', *, *, #184, .F. ) ;
#374 = CIRCLE ( 'NONE', #280, 3.220472440944881900 ) ;
#375 = CARTESIAN_POINT ( 'NONE',  ( -7.874015748031496300, 7.874015748031496300, 0.0000000000000000000 ) ) ;
#376 = CARTESIAN_POINT ( 'NONE',  ( -7.874015748031496300, 1.971970633272706300E-016, 3.220472440944881500 ) ) ;
#377 = AXIS2_PLACEMENT_3D ( 'NONE', #371, #120, #112 ) ;
#378 = PERSON_AND_ORGANIZATION ( #55, #138 ) ;
#379 = CARTESIAN_POINT ( 'NONE',  ( 0.0000000000000000000, 1.968503937007874100, -4.821284857568425000E-016 ) ) ;
#380 = CARTESIAN_POINT ( 'NONE',  ( 0.0000000000000000000, 0.0000000000000000000, -3.937007874015748100 ) ) ;
#381 = VERTEX_POINT ( 'NONE', #317 ) ;
#382 = CARTESIAN_POINT ( 'NONE',  ( -2.602362204724405700, 0.0000000000000000000, 0.0000000000000000000 ) ) ;
#383 = FACE_OUTER_BOUND ( 'NONE', #315, .T. ) ;
#384 = ORIENTED_EDGE ( 'NONE', *, *, #330, .F. ) ;
#385 = CIRCLE ( 'NONE', #246, 4.295275590551181500 ) ;
#386 = ORIENTED_EDGE ( 'NONE', *, *, #291, .F. ) ;
ENDSEC;
END-ISO-10303-21;
