ISO-10303-21;
HEADER;
FILE_DESCRIPTION (( 'STEP AP203' ),
    '1' );
FILE_NAME ('581246040.STEP',
    '2017-07-27T19:36:43',
    ( '' ),
    ( '' ),
    'SwSTEP 2.0',
    'SolidWorks 2017',
    '' );
FILE_SCHEMA (( 'CONFIG_CONTROL_DESIGN' ));
ENDSEC;

DATA;
#1 = DIRECTION ( 'NONE',  ( 0.0000000000000000000, 0.0000000000000000000, -1.000000000000000000 ) ) ;
#2 = SECURITY_CLASSIFICATION ( '', '', #368 ) ;
#3 = DIRECTION ( 'NONE',  ( 1.000000000000000000, 0.0000000000000000000, 0.0000000000000000000 ) ) ;
#4 = APPROVAL ( #21, 'UNSPECIFIED' ) ;
#5 = CARTESIAN_POINT ( 'NONE',  ( -4.980314960629921300, 0.0000000000000000000, -1.771653543307086600 ) ) ;
#6 = PERSON_AND_ORGANIZATION ( #95, #36 ) ;
#7 = COORDINATED_UNIVERSAL_TIME_OFFSET ( 5, 0, .BEHIND. ) ;
#8 = DIRECTION ( 'NONE',  ( 0.0000000000000000000, 0.0000000000000000000, -1.000000000000000000 ) ) ;
#9 = CLOSED_SHELL ( 'NONE', ( #216, #345, #107, #118, #232, #378, #70, #266, #14, #251, #334, #134, #361 ) ) ;
#10 = EDGE_LOOP ( 'NONE', ( #301 ) ) ;
#11 = FACE_OUTER_BOUND ( 'NONE', #80, .T. ) ;
#12 = LENGTH_MEASURE_WITH_UNIT ( LENGTH_MEASURE( 0.02539999999999999900 ), #73 );
#13 = AXIS2_PLACEMENT_3D ( 'NONE', #61, #3, #181 ) ;
#14 = ADVANCED_FACE ( 'NONE', ( #284, #156 ), #81, .T. ) ;
#15 = CIRCLE ( 'NONE', #131, 2.165354330708661600 ) ;
#16 = DIRECTION ( 'NONE',  ( 0.0000000000000000000, -1.000000000000000000, 0.0000000000000000000 ) ) ;
#17 = APPROVAL_DATE_TIME ( #172, #211 ) ;
#18 = DIRECTION ( 'NONE',  ( 0.0000000000000000000, 0.0000000000000000000, -1.000000000000000000 ) ) ;
#19 = PLANE ( 'NONE',  #47 ) ;
#20 = DATE_AND_TIME ( #100, #176 ) ;
#21 = APPROVAL_STATUS ( 'not_yet_approved' ) ;
#22 = EDGE_CURVE ( 'NONE', #227, #227, #230, .T. ) ;
#23 = ORIENTED_EDGE ( 'NONE', *, *, #382, .F. ) ;
#24 = EDGE_LOOP ( 'NONE', ( #45 ) ) ;
#25 =( NAMED_UNIT ( * ) SI_UNIT ( $, .STERADIAN. ) SOLID_ANGLE_UNIT ( ) );
#26 = MANIFOLD_SOLID_BREP ( '1', #9 ) ;
#27 = VERTEX_POINT ( 'NONE', #308 ) ;
#28 = CIRCLE ( 'NONE', #369, 1.771653543307086600 ) ;
#29 = LOCAL_TIME ( 15, 36, 43.00000000000000000, #326 ) ;
#30 = CC_DESIGN_APPROVAL ( #4, ( #2 ) ) ;
#31 = DIRECTION ( 'NONE',  ( 1.000000000000000000, 0.0000000000000000000, 0.0000000000000000000 ) ) ;
#32 = ORIENTED_EDGE ( 'NONE', *, *, #77, .F. ) ;
#33 = CARTESIAN_POINT ( 'NONE',  ( -4.980314960629921300, 3.799212598425197200, 0.0000000000000000000 ) ) ;
#34 = EDGE_LOOP ( 'NONE', ( #259 ) ) ;
#35 = AXIS2_PLACEMENT_3D ( 'NONE', #190, #362, #160 ) ;
#36 = ORGANIZATION ( 'UNSPECIFIED', 'UNSPECIFIED', '' ) ;
#37 = AXIS2_PLACEMENT_3D ( 'NONE', #316, #122, #319 ) ;
#38 = CARTESIAN_POINT ( 'NONE',  ( -4.980314960629921300, 0.0000000000000000000, 2.362204724409448200 ) ) ;
#39 = CYLINDRICAL_SURFACE ( 'NONE', #263, 2.165354330708661600 ) ;
#40 = CARTESIAN_POINT ( 'NONE',  ( 0.03937007874015748000, 0.0000000000000000000, 0.0000000000000000000 ) ) ;
#41 = EDGE_LOOP ( 'NONE', ( #49 ) ) ;
#42 = CARTESIAN_POINT ( 'NONE',  ( 0.0000000000000000000, 0.0000000000000000000, 0.0000000000000000000 ) ) ;
#43 = CC_DESIGN_SECURITY_CLASSIFICATION ( #2, ( #288 ) ) ;
#44 = CARTESIAN_POINT ( 'NONE',  ( -2.007874015748031500, 0.0000000000000000000, 0.0000000000000000000 ) ) ;
#45 = ORIENTED_EDGE ( 'NONE', *, *, #339, .T. ) ;
#46 = APPROVAL_ROLE ( '' ) ;
#47 = AXIS2_PLACEMENT_3D ( 'NONE', #74, #191, #365 ) ;
#48 = EDGE_CURVE ( 'NONE', #110, #110, #203, .T. ) ;
#49 = ORIENTED_EDGE ( 'NONE', *, *, #209, .F. ) ;
#50 =( GEOMETRIC_REPRESENTATION_CONTEXT ( 3 ) GLOBAL_UNCERTAINTY_ASSIGNED_CONTEXT ( ( #358 ) ) GLOBAL_UNIT_ASSIGNED_CONTEXT ( ( #282, #109, #25 ) ) REPRESENTATION_CONTEXT ( 'NONE', 'WORKASPACE' ) );
#51 = CIRCLE ( 'NONE', #350, 2.362204724409448600 ) ;
#52 = CARTESIAN_POINT ( 'NONE',  ( -0.2559055118110250000, 4.724409448818896400, -2.362204724409448600 ) ) ;
#53 = FACE_BOUND ( 'NONE', #34, .T. ) ;
#54 = DIRECTION ( 'NONE',  ( 0.0000000000000000000, 1.000000000000000000, 0.0000000000000000000 ) ) ;
#55 = DIRECTION ( 'NONE',  ( 0.0000000000000000000, 0.0000000000000000000, -1.000000000000000000 ) ) ;
#56 =( BOUNDED_CURVE ( )  B_SPLINE_CURVE ( 3, ( #275, #60, #240, #349 ),
 .UNSPECIFIED., .F., .T. ) 
 B_SPLINE_CURVE_WITH_KNOTS ( ( 4, 4 ),
 ( 1.570796326794896600, 4.712388980384689700 ),
 .UNSPECIFIED. ) 
 CURVE ( )  GEOMETRIC_REPRESENTATION_ITEM ( )  RATIONAL_B_SPLINE_CURVE ( ( 1.000000000000000000, 0.3333333333333333700, 0.3333333333333333700, 1.000000000000000000 ) ) 
 REPRESENTATION_ITEM ( '' )  );
#57 = DIRECTION ( 'NONE',  ( 0.0000000000000000000, 0.0000000000000000000, -1.000000000000000000 ) ) ;
#58 = DIRECTION ( 'NONE',  ( -0.0000000000000000000, -1.000000000000000000, -0.0000000000000000000 ) ) ;
#59 = CYLINDRICAL_SURFACE ( 'NONE', #280, 2.165354330708661600 ) ;
#60 = CARTESIAN_POINT ( 'NONE',  ( -1.437007874015749000, 3.543307086614172700, -1.771653543307086600 ) ) ;
#61 = CARTESIAN_POINT ( 'NONE',  ( -9.960629921259842600, 0.0000000000000000000, 0.0000000000000000000 ) ) ;
#62 = PRODUCT ( '581246040', '581246040', '', ( #75 ) ) ;
#63 = PRODUCT_RELATED_PRODUCT_CATEGORY ( 'detail', '', ( #62 ) ) ;
#64 = DIRECTION ( 'NONE',  ( 0.0000000000000000000, 0.0000000000000000000, -1.000000000000000000 ) ) ;
#65 = CARTESIAN_POINT ( 'NONE',  ( -4.980314960629921300, 1.084824920504545200E-016, 1.771653543307086600 ) ) ;
#66 = DATE_AND_TIME ( #144, #222 ) ;
#67 = ORIENTED_EDGE ( 'NONE', *, *, #48, .F. ) ;
#68 = AXIS2_PLACEMENT_3D ( 'NONE', #220, #163, #194 ) ;
#69 = AXIS2_PLACEMENT_3D ( 'NONE', #142, #384, #348 ) ;
#70 = ADVANCED_FACE ( 'NONE', ( #379, #53 ), #19, .T. ) ;
#71 = DIRECTION ( 'NONE',  ( -1.000000000000000000, -0.0000000000000000000, -0.0000000000000000000 ) ) ;
#72 = FACE_OUTER_BOUND ( 'NONE', #224, .T. ) ;
#73 =( LENGTH_UNIT ( ) NAMED_UNIT ( * ) SI_UNIT ( $, .METRE. ) );
#74 = CARTESIAN_POINT ( 'NONE',  ( -3.897637795275590700, 4.803149606299212900, -2.651706671662626400E-016 ) ) ;
#75 = MECHANICAL_CONTEXT ( 'NONE', #260, 'mechanical' ) ;
#76 = PERSON_AND_ORGANIZATION ( #95, #36 ) ;
#77 = EDGE_CURVE ( 'NONE', #244, #244, #314, .T. ) ;
#78 = APPLICATION_CONTEXT ( 'configuration controlled 3d designs of mechanical parts and assemblies' ) ;
#79 = ORIENTED_EDGE ( 'NONE', *, *, #22, .F. ) ;
#80 = EDGE_LOOP ( 'NONE', ( #207 ) ) ;
#81 = CONICAL_SURFACE ( 'NONE', #68, 2.362204724409449100, 0.7853981633974476100 ) ;
#82 = PERSON_AND_ORGANIZATION ( #95, #36 ) ;
#83 = VERTEX_POINT ( 'NONE', #151 ) ;
#84 = CARTESIAN_POINT ( 'NONE',  ( -4.980314960629921300, 2.598425196850391700, 0.0000000000000000000 ) ) ;
#85 = PERSON_AND_ORGANIZATION ( #95, #36 ) ;
#86 = DIRECTION ( 'NONE',  ( 1.000000000000000000, -0.0000000000000000000, -0.0000000000000000000 ) ) ;
#87 =( BOUNDED_CURVE ( )  B_SPLINE_CURVE ( 3, ( #38, #208, #125, #322 ),
 .UNSPECIFIED., .F., .T. ) 
 B_SPLINE_CURVE_WITH_KNOTS ( ( 4, 4 ),
 ( 1.570796326794896800, 4.712388980384689700 ),
 .UNSPECIFIED. ) 
 CURVE ( )  GEOMETRIC_REPRESENTATION_ITEM ( )  RATIONAL_B_SPLINE_CURVE ( ( 1.000000000000000000, 0.3333333333333333700, 0.3333333333333333700, 1.000000000000000000 ) ) 
 REPRESENTATION_ITEM ( '' )  );
#88 = EDGE_LOOP ( 'NONE', ( #201 ) ) ;
#89 = EDGE_LOOP ( 'NONE', ( #320 ) ) ;
#90 = CYLINDRICAL_SURFACE ( 'NONE', #231, 1.771653543307086600 ) ;
#91 = CARTESIAN_POINT ( 'NONE',  ( 0.0000000000000000000, 0.0000000000000000000, 0.0000000000000000000 ) ) ;
#92 = AXIS2_PLACEMENT_3D ( 'NONE', #44, #219, #18 ) ;
#93 = AXIS2_PLACEMENT_3D ( 'NONE', #205, #236, #55 ) ;
#94 = CARTESIAN_POINT ( 'NONE',  ( -4.980314960629921300, 2.795275590551181500, -2.165354330708661600 ) ) ;
#95 = PERSON ( 'UNSPECIFIED', 'UNSPECIFIED', 'UNSPECIFIED', ('UNSPECIFIED'), ('UNSPECIFIED'), ('UNSPECIFIED') ) ;
#96 = ADVANCED_BREP_SHAPE_REPRESENTATION ( '581246040', ( #26, #150 ), #50 ) ;
#97 = CALENDAR_DATE ( 2017, 27, 7 ) ;
#98 = CARTESIAN_POINT ( 'NONE',  ( -9.960629921259842600, 0.0000000000000000000, 0.0000000000000000000 ) ) ;
#99 = CIRCLE ( 'NONE', #13, 1.771653543307086600 ) ;
#100 = CALENDAR_DATE ( 2017, 27, 7 ) ;
#101 = CARTESIAN_POINT ( 'NONE',  ( -8.523622047244094400, 3.543307086614172700, 1.771653543307086600 ) ) ;
#102 = EDGE_LOOP ( 'NONE', ( #79 ) ) ;
#103 = VERTEX_POINT ( 'NONE', #305 ) ;
#104 = EDGE_CURVE ( 'NONE', #162, #162, #129, .T. ) ;
#105 = FACE_BOUND ( 'NONE', #167, .T. ) ;
#106 = DIRECTION ( 'NONE',  ( 0.0000000000000000000, 0.0000000000000000000, -1.000000000000000000 ) ) ;
#107 = ADVANCED_FACE ( 'NONE', ( #171, #116 ), #335, .T. ) ;
#108 = CARTESIAN_POINT ( 'NONE',  ( -4.980314960629921300, 0.0000000000000000000, 0.0000000000000000000 ) ) ;
#109 =( NAMED_UNIT ( * ) PLANE_ANGLE_UNIT ( ) SI_UNIT ( $, .RADIAN. ) );
#110 = VERTEX_POINT ( 'NONE', #271 ) ;
#111 = DIRECTION ( 'NONE',  ( -1.000000000000000000, -0.0000000000000000000, -0.0000000000000000000 ) ) ;
#112 = PERSON_AND_ORGANIZATION_ROLE ( 'design_supplier' ) ;
#113 = ORIENTED_EDGE ( 'NONE', *, *, #115, .F. ) ;
#114 = EDGE_LOOP ( 'NONE', ( #270 ) ) ;
#115 = EDGE_CURVE ( 'NONE', #83, #83, #28, .T. ) ;
#116 = FACE_BOUND ( 'NONE', #199, .T. ) ;
#117 = FACE_BOUND ( 'NONE', #373, .T. ) ;
#118 = ADVANCED_FACE ( 'NONE', ( #264, #366 ), #332, .F. ) ;
#119 = CARTESIAN_POINT ( 'NONE',  ( -4.980314960629921300, 0.0000000000000000000, 2.362204724409448200 ) ) ;
#120 = EDGE_LOOP ( 'NONE', ( #184 ) ) ;
#121 = DIRECTION ( 'NONE',  ( 1.000000000000000000, 0.0000000000000000000, -2.449212707644740200E-016 ) ) ;
#122 = DIRECTION ( 'NONE',  ( -1.000000000000000000, 0.0000000000000000000, 0.0000000000000000000 ) ) ;
#123 = DIRECTION ( 'NONE',  ( 0.0000000000000000000, 0.0000000000000000000, -1.000000000000000000 ) ) ;
#124 = DIRECTION ( 'NONE',  ( 0.0000000000000000000, 0.0000000000000000000, -1.000000000000000000 ) ) ;
#125 = CARTESIAN_POINT ( 'NONE',  ( -9.704724409448818500, 4.724409448818897200, -2.362204724409447300 ) ) ;
#126 = FACE_BOUND ( 'NONE', #355, .T. ) ;
#127 = CARTESIAN_POINT ( 'NONE',  ( -4.980314960629921300, 4.803149606299212900, -1.771653543307086600 ) ) ;
#128 = VERTEX_POINT ( 'NONE', #357 ) ;
#129 = CIRCLE ( 'NONE', #35, 2.165354330708661600 ) ;
#130 = DIRECTION ( 'NONE',  ( 0.0000000000000000000, -1.000000000000000000, 0.0000000000000000000 ) ) ;
#131 = AXIS2_PLACEMENT_3D ( 'NONE', #91, #295, #124 ) ;
#132 = ORIENTED_EDGE ( 'NONE', *, *, #249, .F. ) ;
#133 = AXIS2_PLACEMENT_3D ( 'NONE', #306, #111, #283 ) ;
#134 = ADVANCED_FACE ( 'NONE', ( #141, #189 ), #304, .T. ) ;
#135 = DIRECTION ( 'NONE',  ( 0.0000000000000000000, 0.0000000000000000000, -1.000000000000000000 ) ) ;
#136 = CARTESIAN_POINT ( 'NONE',  ( 0.0000000000000000000, 1.082677165354330800, -2.651706671662626400E-016 ) ) ;
#137 = FACE_OUTER_BOUND ( 'NONE', #329, .T. ) ;
#138 = DESIGN_CONTEXT ( 'detailed design', #78, 'design' ) ;
#139 = EDGE_LOOP ( 'NONE', ( #294 ) ) ;
#140 = FACE_OUTER_BOUND ( 'NONE', #120, .T. ) ;
#141 = FACE_BOUND ( 'NONE', #386, .T. ) ;
#142 = CARTESIAN_POINT ( 'NONE',  ( -4.980314960629921300, 1.299212598425197000, 0.0000000000000000000 ) ) ;
#143 = CARTESIAN_POINT ( 'NONE',  ( 0.0000000000000000000, 0.0000000000000000000, 0.0000000000000000000 ) ) ;
#144 = CALENDAR_DATE ( 2017, 27, 7 ) ;
#145 = AXIS2_PLACEMENT_3D ( 'NONE', #108, #16, #106 ) ;
#146 = VERTEX_POINT ( 'NONE', #279 ) ;
#147 = EDGE_LOOP ( 'NONE', ( #193, #278 ) ) ;
#148 = FACE_OUTER_BOUND ( 'NONE', #114, .T. ) ;
#149 = AXIS2_PLACEMENT_3D ( 'NONE', #281, #71, #253 ) ;
#150 = AXIS2_PLACEMENT_3D ( 'NONE', #143, #254, #310 ) ;
#151 = CARTESIAN_POINT ( 'NONE',  ( 0.0000000000000000000, 0.0000000000000000000, -1.771653543307086600 ) ) ;
#152 = DIRECTION ( 'NONE',  ( 0.0000000000000000000, 0.0000000000000000000, -1.000000000000000000 ) ) ;
#153 = CARTESIAN_POINT ( 'NONE',  ( -4.980314960629921300, 2.598425196850391700, 0.0000000000000000000 ) ) ;
#154 = DATE_AND_TIME ( #234, #309 ) ;
#155 = EDGE_CURVE ( 'NONE', #187, #187, #290, .T. ) ;
#156 = FACE_BOUND ( 'NONE', #302, .T. ) ;
#157 = VERTEX_POINT ( 'NONE', #245 ) ;
#158 = CIRCLE ( 'NONE', #377, 2.165354330708661600 ) ;
#159 = VERTEX_POINT ( 'NONE', #298 ) ;
#160 = DIRECTION ( 'NONE',  ( 0.0000000000000000000, 0.0000000000000000000, -1.000000000000000000 ) ) ;
#161 = APPROVAL_ROLE ( '' ) ;
#162 = VERTEX_POINT ( 'NONE', #354 ) ;
#163 = DIRECTION ( 'NONE',  ( -1.000000000000000000, -0.0000000000000000000, 0.0000000000000000000 ) ) ;
#164 = PERSON_AND_ORGANIZATION ( #95, #36 ) ;
#165 = APPROVAL_STATUS ( 'not_yet_approved' ) ;
#166 = ORIENTED_EDGE ( 'NONE', *, *, #22, .T. ) ;
#167 = EDGE_LOOP ( 'NONE', ( #269, #178 ) ) ;
#168 = AXIS2_PLACEMENT_3D ( 'NONE', #153, #130, #185 ) ;
#169 = FACE_OUTER_BOUND ( 'NONE', #285, .T. ) ;
#170 = CC_DESIGN_PERSON_AND_ORGANIZATION_ASSIGNMENT ( #243, #256, ( #62 ) ) ;
#171 = FACE_OUTER_BOUND ( 'NONE', #10, .T. ) ;
#172 = DATE_AND_TIME ( #97, #29 ) ;
#173 = FACE_OUTER_BOUND ( 'NONE', #385, .T. ) ;
#174 = CARTESIAN_POINT ( 'NONE',  ( -4.980314960629921300, 0.0000000000000000000, 0.0000000000000000000 ) ) ;
#175 = DIMENSIONAL_EXPONENTS ( 1.000000000000000000, 0.0000000000000000000, 0.0000000000000000000, 0.0000000000000000000, 0.0000000000000000000, 0.0000000000000000000, 0.0000000000000000000 ) ;
#176 = LOCAL_TIME ( 15, 36, 43.00000000000000000, #257 ) ;
#177 = EDGE_LOOP ( 'NONE', ( #374 ) ) ;
#178 = ORIENTED_EDGE ( 'NONE', *, *, #238, .F. ) ;
#179 = CARTESIAN_POINT ( 'NONE',  ( -4.980314960629921300, 4.803149606299212900, 0.0000000000000000000 ) ) ;
#180 = VERTEX_POINT ( 'NONE', #223 ) ;
#181 = DIRECTION ( 'NONE',  ( 0.0000000000000000000, 0.0000000000000000000, -1.000000000000000000 ) ) ;
#182 = FACE_BOUND ( 'NONE', #102, .T. ) ;
#183 = PERSON_AND_ORGANIZATION ( #95, #36 ) ;
#184 = ORIENTED_EDGE ( 'NONE', *, *, #155, .T. ) ;
#185 = DIRECTION ( 'NONE',  ( 0.0000000000000000000, 0.0000000000000000000, -1.000000000000000000 ) ) ;
#186 = EDGE_CURVE ( 'NONE', #157, #128, #372, .T. ) ;
#187 = VERTEX_POINT ( 'NONE', #325 ) ;
#188 = PRODUCT_DEFINITION ( 'UNKNOWN', '', #288, #138 ) ;
#189 = FACE_OUTER_BOUND ( 'NONE', #89, .T. ) ;
#190 = CARTESIAN_POINT ( 'NONE',  ( -4.980314960629921300, 4.803149606299212900, 0.0000000000000000000 ) ) ;
#191 = DIRECTION ( 'NONE',  ( 0.0000000000000000000, 1.000000000000000000, 0.0000000000000000000 ) ) ;
#192 = DATE_TIME_ROLE ( 'creation_date' ) ;
#193 = ORIENTED_EDGE ( 'NONE', *, *, #228, .F. ) ;
#194 = DIRECTION ( 'NONE',  ( 0.0000000000000000000, 0.0000000000000000000, 1.000000000000000000 ) ) ;
#195 = DATE_TIME_ROLE ( 'classification_date' ) ;
#196 = APPROVAL_ROLE ( '' ) ;
#197 = EDGE_CURVE ( 'NONE', #159, #159, #15, .T. ) ;
#198 =( BOUNDED_CURVE ( )  B_SPLINE_CURVE ( 3, ( #268, #52, #289, #119 ),
 .UNSPECIFIED., .F., .T. ) 
 B_SPLINE_CURVE_WITH_KNOTS ( ( 4, 4 ),
 ( 1.570796326794896600, 4.712388980384689700 ),
 .UNSPECIFIED. ) 
 CURVE ( )  GEOMETRIC_REPRESENTATION_ITEM ( )  RATIONAL_B_SPLINE_CURVE ( ( 1.000000000000000000, 0.3333333333333333700, 0.3333333333333333700, 1.000000000000000000 ) ) 
 REPRESENTATION_ITEM ( '' )  );
#199 = EDGE_LOOP ( 'NONE', ( #352 ) ) ;
#200 = CYLINDRICAL_SURFACE ( 'NONE', #375, 2.362204724409448600 ) ;
#201 = ORIENTED_EDGE ( 'NONE', *, *, #249, .T. ) ;
#202 = CARTESIAN_POINT ( 'NONE',  ( -4.980314960629921300, 2.795275590551181500, 0.0000000000000000000 ) ) ;
#203 = CIRCLE ( 'NONE', #92, 2.165354330708661600 ) ;
#204 = CARTESIAN_POINT ( 'NONE',  ( -2.204724409448819000, 0.0000000000000000000, 0.0000000000000000000 ) ) ;
#205 = CARTESIAN_POINT ( 'NONE',  ( -1.003937007874015700, 0.0000000000000000000, 0.0000000000000000000 ) ) ;
#206 = DIRECTION ( 'NONE',  ( 1.000000000000000000, 0.0000000000000000000, -0.0000000000000000000 ) ) ;
#207 = ORIENTED_EDGE ( 'NONE', *, *, #104, .F. ) ;
#208 = CARTESIAN_POINT ( 'NONE',  ( -9.704724409448818500, 4.724409448818897200, 2.362204724409447300 ) ) ;
#209 = EDGE_CURVE ( 'NONE', #313, #313, #252, .T. ) ;
#210 = CIRCLE ( 'NONE', #239, 2.362204724409450000 ) ;
#211 = APPROVAL ( #165, 'UNSPECIFIED' ) ;
#212 = DIRECTION ( 'NONE',  ( 1.000000000000000000, 0.0000000000000000000, 0.0000000000000000000 ) ) ;
#213 = CARTESIAN_POINT ( 'NONE',  ( -7.952755905511812000, 0.0000000000000000000, -2.165354330708661600 ) ) ;
#214 = CARTESIAN_POINT ( 'NONE',  ( -8.523622047244094400, 3.543307086614172700, -1.771653543307085700 ) ) ;
#215 = DIRECTION ( 'NONE',  ( -1.000000000000000000, -0.0000000000000000000, -0.0000000000000000000 ) ) ;
#216 = ADVANCED_FACE ( 'NONE', ( #105, #169, #72 ), #90, .F. ) ;
#217 = LOCAL_TIME ( 15, 36, 43.00000000000000000, #363 ) ;
#218 = FACE_OUTER_BOUND ( 'NONE', #356, .T. ) ;
#219 = DIRECTION ( 'NONE',  ( 1.000000000000000000, 0.0000000000000000000, 0.0000000000000000000 ) ) ;
#220 = CARTESIAN_POINT ( 'NONE',  ( -2.204724409448819400, 0.0000000000000000000, 0.0000000000000000000 ) ) ;
#221 = PERSON_AND_ORGANIZATION_ROLE ( 'classification_officer' ) ;
#222 = LOCAL_TIME ( 15, 36, 43.00000000000000000, #300 ) ;
#223 = CARTESIAN_POINT ( 'NONE',  ( -2.618110236220471300, 2.598425196850391700, -5.785541829082066700E-016 ) ) ;
#224 = EDGE_LOOP ( 'NONE', ( #113 ) ) ;
#225 = AXIS2_PLACEMENT_3D ( 'NONE', #179, #351, #1 ) ;
#226 = CARTESIAN_POINT ( 'NONE',  ( -2.204724409448819000, 2.362204724409448600, -5.785541829082086400E-016 ) ) ;
#227 = VERTEX_POINT ( 'NONE', #213 ) ;
#228 = EDGE_CURVE ( 'NONE', #146, #103, #87, .T. ) ;
#229 = CC_DESIGN_APPROVAL ( #211, ( #188 ) ) ;
#230 = CIRCLE ( 'NONE', #133, 2.165354330708661600 ) ;
#231 = AXIS2_PLACEMENT_3D ( 'NONE', #40, #272, #123 ) ;
#232 = ADVANCED_FACE ( 'NONE', ( #137, #218 ), #39, .T. ) ;
#233 = SHAPE_DEFINITION_REPRESENTATION ( #299, #96 ) ;
#234 = CALENDAR_DATE ( 2017, 27, 7 ) ;
#235 = ORIENTED_EDGE ( 'NONE', *, *, #228, .T. ) ;
#236 = DIRECTION ( 'NONE',  ( 1.000000000000000000, 0.0000000000000000000, 0.0000000000000000000 ) ) ;
#237 = ORIENTED_EDGE ( 'NONE', *, *, #186, .T. ) ;
#238 = EDGE_CURVE ( 'NONE', #128, #157, #56, .T. ) ;
#239 = AXIS2_PLACEMENT_3D ( 'NONE', #84, #291, #121 ) ;
#240 = CARTESIAN_POINT ( 'NONE',  ( -1.437007874015749000, 3.543307086614172700, 1.771653543307085700 ) ) ;
#241 = DIRECTION ( 'NONE',  ( 0.0000000000000000000, 0.0000000000000000000, -1.000000000000000000 ) ) ;
#242 = CARTESIAN_POINT ( 'NONE',  ( -7.755905511811024100, 2.362204724409448600, -5.785541829082086400E-016 ) ) ;
#243 = PERSON_AND_ORGANIZATION ( #95, #36 ) ;
#244 = VERTEX_POINT ( 'NONE', #242 ) ;
#245 = CARTESIAN_POINT ( 'NONE',  ( -4.980314960629921300, 1.084824920504545200E-016, 1.771653543307086600 ) ) ;
#246 = PERSON_AND_ORGANIZATION ( #95, #36 ) ;
#247 = ORIENTED_EDGE ( 'NONE', *, *, #197, .F. ) ;
#248 = ORIENTED_EDGE ( 'NONE', *, *, #155, .F. ) ;
#249 = EDGE_CURVE ( 'NONE', #262, #262, #158, .T. ) ;
#250 = CC_DESIGN_PERSON_AND_ORGANIZATION_ASSIGNMENT ( #82, #340, ( #188 ) ) ;
#251 = ADVANCED_FACE ( 'NONE', ( #11, #353 ), #59, .T. ) ;
#252 = CIRCLE ( 'NONE', #225, 1.771653543307086600 ) ;
#253 = DIRECTION ( 'NONE',  ( 0.0000000000000000000, 1.000000000000000000, -2.449212707644750100E-016 ) ) ;
#254 = DIRECTION ( 'NONE',  ( 0.0000000000000000000, 0.0000000000000000000, 1.000000000000000000 ) ) ;
#255 = APPROVAL_PERSON_ORGANIZATION ( #183, #211, #196 ) ;
#256 = PERSON_AND_ORGANIZATION_ROLE ( 'design_owner' ) ;
#257 = COORDINATED_UNIVERSAL_TIME_OFFSET ( 5, 0, .BEHIND. ) ;
#258 = ORIENTED_EDGE ( 'NONE', *, *, #382, .T. ) ;
#259 = ORIENTED_EDGE ( 'NONE', *, *, #209, .T. ) ;
#260 = APPLICATION_CONTEXT ( 'configuration controlled 3d designs of mechanical parts and assemblies' ) ;
#261 = AXIS2_PLACEMENT_3D ( 'NONE', #327, #206, #152 ) ;
#262 = VERTEX_POINT ( 'NONE', #94 ) ;
#263 = AXIS2_PLACEMENT_3D ( 'NONE', #297, #212, #321 ) ;
#264 = FACE_OUTER_BOUND ( 'NONE', #330, .T. ) ;
#265 = FACE_OUTER_BOUND ( 'NONE', #147, .T. ) ;
#266 = ADVANCED_FACE ( 'NONE', ( #182, #276 ), #376, .T. ) ;
#267 = CYLINDRICAL_SURFACE ( 'NONE', #93, 2.165354330708661600 ) ;
#268 = CARTESIAN_POINT ( 'NONE',  ( -4.980314960629921300, 0.0000000000000000000, -2.362204724409448200 ) ) ;
#269 = ORIENTED_EDGE ( 'NONE', *, *, #186, .F. ) ;
#270 = ORIENTED_EDGE ( 'NONE', *, *, #339, .F. ) ;
#271 = CARTESIAN_POINT ( 'NONE',  ( -2.007874015748031500, 0.0000000000000000000, -2.165354330708661600 ) ) ;
#272 = DIRECTION ( 'NONE',  ( 1.000000000000000000, 0.0000000000000000000, 0.0000000000000000000 ) ) ;
#273 = EDGE_CURVE ( 'NONE', #103, #146, #198, .T. ) ;
#274 = CC_DESIGN_DATE_AND_TIME_ASSIGNMENT ( #341, #192, ( #188 ) ) ;
#275 = CARTESIAN_POINT ( 'NONE',  ( -4.980314960629921300, 0.0000000000000000000, -1.771653543307086600 ) ) ;
#276 = FACE_OUTER_BOUND ( 'NONE', #177, .T. ) ;
#277 = DIRECTION ( 'NONE',  ( -1.000000000000000000, -0.0000000000000000000, -0.0000000000000000000 ) ) ;
#278 = ORIENTED_EDGE ( 'NONE', *, *, #273, .F. ) ;
#279 = CARTESIAN_POINT ( 'NONE',  ( -4.980314960629921300, 0.0000000000000000000, 2.362204724409448200 ) ) ;
#280 = AXIS2_PLACEMENT_3D ( 'NONE', #33, #58, #241 ) ;
#281 = CARTESIAN_POINT ( 'NONE',  ( -7.755905511811024100, 0.0000000000000000000, 0.0000000000000000000 ) ) ;
#282 =( CONVERSION_BASED_UNIT ( 'INCH', #12 ) LENGTH_UNIT ( ) NAMED_UNIT ( #175 ) );
#283 = DIRECTION ( 'NONE',  ( 0.0000000000000000000, 0.0000000000000000000, -1.000000000000000000 ) ) ;
#284 = FACE_OUTER_BOUND ( 'NONE', #24, .T. ) ;
#285 = EDGE_LOOP ( 'NONE', ( #23 ) ) ;
#286 = FACE_OUTER_BOUND ( 'NONE', #293, .T. ) ;
#287 = EDGE_CURVE ( 'NONE', #180, #180, #210, .T. ) ;
#288 = PRODUCT_DEFINITION_FORMATION_WITH_SPECIFIED_SOURCE ( 'ANY', '', #62, .NOT_KNOWN. ) ;
#289 = CARTESIAN_POINT ( 'NONE',  ( -0.2559055118110250000, 4.724409448818897200, 2.362204724409447300 ) ) ;
#290 = CIRCLE ( 'NONE', #331, 2.165354330708661600 ) ;
#291 = DIRECTION ( 'NONE',  ( 0.0000000000000000000, 1.000000000000000000, 0.0000000000000000000 ) ) ;
#292 = DIRECTION ( 'NONE',  ( 0.0000000000000000000, 1.000000000000000000, -2.449212707644750100E-016 ) ) ;
#293 = EDGE_LOOP ( 'NONE', ( #318 ) ) ;
#294 = ORIENTED_EDGE ( 'NONE', *, *, #287, .F. ) ;
#295 = DIRECTION ( 'NONE',  ( 1.000000000000000000, 0.0000000000000000000, 0.0000000000000000000 ) ) ;
#296 = FACE_OUTER_BOUND ( 'NONE', #338, .T. ) ;
#297 = CARTESIAN_POINT ( 'NONE',  ( -8.956692913385827700, 0.0000000000000000000, 0.0000000000000000000 ) ) ;
#298 = CARTESIAN_POINT ( 'NONE',  ( 0.0000000000000000000, 0.0000000000000000000, -2.165354330708661600 ) ) ;
#299 = PRODUCT_DEFINITION_SHAPE ( 'NONE', 'NONE',  #188 ) ;
#300 = COORDINATED_UNIVERSAL_TIME_OFFSET ( 5, 0, .BEHIND. ) ;
#301 = ORIENTED_EDGE ( 'NONE', *, *, #197, .T. ) ;
#302 = EDGE_LOOP ( 'NONE', ( #67 ) ) ;
#303 = APPROVAL ( #336, 'UNSPECIFIED' ) ;
#304 = CONICAL_SURFACE ( 'NONE', #168, 2.362204724409450000, 0.7853981633974427300 ) ;
#305 = CARTESIAN_POINT ( 'NONE',  ( -4.980314960629921300, 0.0000000000000000000, -2.362204724409448200 ) ) ;
#306 = CARTESIAN_POINT ( 'NONE',  ( -7.952755905511812000, 0.0000000000000000000, 0.0000000000000000000 ) ) ;
#307 = CALENDAR_DATE ( 2017, 27, 7 ) ;
#308 = CARTESIAN_POINT ( 'NONE',  ( -9.960629921259842600, 0.0000000000000000000, -1.771653543307086600 ) ) ;
#309 = LOCAL_TIME ( 15, 36, 43.00000000000000000, #7 ) ;
#310 = DIRECTION ( 'NONE',  ( 1.000000000000000000, 0.0000000000000000000, 0.0000000000000000000 ) ) ;
#311 = ORIENTED_EDGE ( 'NONE', *, *, #238, .T. ) ;
#312 = ORIENTED_EDGE ( 'NONE', *, *, #273, .T. ) ;
#313 = VERTEX_POINT ( 'NONE', #127 ) ;
#314 = CIRCLE ( 'NONE', #149, 2.362204724409448600 ) ;
#315 = CYLINDRICAL_SURFACE ( 'NONE', #69, 2.362204724409448600 ) ;
#316 = CARTESIAN_POINT ( 'NONE',  ( -9.960629921259842600, 1.082677165354330800, -2.651706671662626400E-016 ) ) ;
#317 = APPROVAL_DATE_TIME ( #20, #303 ) ;
#318 = ORIENTED_EDGE ( 'NONE', *, *, #48, .T. ) ;
#319 = DIRECTION ( 'NONE',  ( 0.0000000000000000000, 0.0000000000000000000, 1.000000000000000000 ) ) ;
#320 = ORIENTED_EDGE ( 'NONE', *, *, #287, .T. ) ;
#321 = DIRECTION ( 'NONE',  ( 0.0000000000000000000, 0.0000000000000000000, -1.000000000000000000 ) ) ;
#322 = CARTESIAN_POINT ( 'NONE',  ( -4.980314960629921300, 0.0000000000000000000, -2.362204724409448200 ) ) ;
#323 = VERTEX_POINT ( 'NONE', #226 ) ;
#324 = CC_DESIGN_APPROVAL ( #303, ( #288 ) ) ;
#325 = CARTESIAN_POINT ( 'NONE',  ( -9.960629921259842600, 0.0000000000000000000, -2.165354330708661600 ) ) ;
#326 = COORDINATED_UNIVERSAL_TIME_OFFSET ( 5, 0, .BEHIND. ) ;
#327 = CARTESIAN_POINT ( 'NONE',  ( -7.755905511811024100, 0.0000000000000000000, 0.0000000000000000000 ) ) ;
#328 = APPROVAL_PERSON_ORGANIZATION ( #6, #303, #161 ) ;
#329 = EDGE_LOOP ( 'NONE', ( #248 ) ) ;
#330 = EDGE_LOOP ( 'NONE', ( #311, #237 ) ) ;
#331 = AXIS2_PLACEMENT_3D ( 'NONE', #98, #277, #64 ) ;
#332 = CYLINDRICAL_SURFACE ( 'NONE', #145, 1.771653543307086600 ) ;
#333 = DIRECTION ( 'NONE',  ( 1.000000000000000000, 0.0000000000000000000, 0.0000000000000000000 ) ) ;
#334 = ADVANCED_FACE ( 'NONE', ( #126, #296, #148 ), #200, .T. ) ;
#335 = PLANE ( 'NONE',  #347 ) ;
#336 = APPROVAL_STATUS ( 'not_yet_approved' ) ;
#337 = APPLICATION_PROTOCOL_DEFINITION ( 'international standard', 'config_control_design', 1994, #260 ) ;
#338 = EDGE_LOOP ( 'NONE', ( #32 ) ) ;
#339 = EDGE_CURVE ( 'NONE', #323, #323, #51, .T. ) ;
#340 = PERSON_AND_ORGANIZATION_ROLE ( 'creator' ) ;
#341 = DATE_AND_TIME ( #307, #217 ) ;
#342 = FACE_OUTER_BOUND ( 'NONE', #139, .T. ) ;
#343 = CC_DESIGN_PERSON_AND_ORGANIZATION_ASSIGNMENT ( #246, #367, ( #288 ) ) ;
#344 = CC_DESIGN_PERSON_AND_ORGANIZATION_ASSIGNMENT ( #85, #221, ( #2 ) ) ;
#345 = ADVANCED_FACE ( 'NONE', ( #140, #117 ), #381, .T. ) ;
#346 = ORIENTED_EDGE ( 'NONE', *, *, #104, .T. ) ;
#347 = AXIS2_PLACEMENT_3D ( 'NONE', #136, #333, #135 ) ;
#348 = DIRECTION ( 'NONE',  ( 0.0000000000000000000, 0.0000000000000000000, -1.000000000000000000 ) ) ;
#349 = CARTESIAN_POINT ( 'NONE',  ( -4.980314960629921300, 1.084824920504545200E-016, 1.771653543307086600 ) ) ;
#350 = AXIS2_PLACEMENT_3D ( 'NONE', #204, #86, #292 ) ;
#351 = DIRECTION ( 'NONE',  ( 0.0000000000000000000, -1.000000000000000000, 0.0000000000000000000 ) ) ;
#352 = ORIENTED_EDGE ( 'NONE', *, *, #115, .T. ) ;
#353 = FACE_OUTER_BOUND ( 'NONE', #88, .T. ) ;
#354 = CARTESIAN_POINT ( 'NONE',  ( -4.980314960629921300, 4.803149606299212900, -2.165354330708661600 ) ) ;
#355 = EDGE_LOOP ( 'NONE', ( #235, #312 ) ) ;
#356 = EDGE_LOOP ( 'NONE', ( #166 ) ) ;
#357 = CARTESIAN_POINT ( 'NONE',  ( -4.980314960629921300, 0.0000000000000000000, -1.771653543307086600 ) ) ;
#358 = UNCERTAINTY_MEASURE_WITH_UNIT (LENGTH_MEASURE( 1.000000000000000100E-005 ), #282, 'distance_accuracy_value', 'NONE');
#359 = EDGE_LOOP ( 'NONE', ( #346 ) ) ;
#360 = CC_DESIGN_PERSON_AND_ORGANIZATION_ASSIGNMENT ( #164, #112, ( #288 ) ) ;
#361 = ADVANCED_FACE ( 'NONE', ( #342, #265 ), #315, .T. ) ;
#362 = DIRECTION ( 'NONE',  ( 0.0000000000000000000, 1.000000000000000000, 0.0000000000000000000 ) ) ;
#363 = COORDINATED_UNIVERSAL_TIME_OFFSET ( 5, 0, .BEHIND. ) ;
#364 = CC_DESIGN_DATE_AND_TIME_ASSIGNMENT ( #154, #195, ( #2 ) ) ;
#365 = DIRECTION ( 'NONE',  ( 0.0000000000000000000, -0.0000000000000000000, 1.000000000000000000 ) ) ;
#366 = FACE_OUTER_BOUND ( 'NONE', #41, .T. ) ;
#367 = PERSON_AND_ORGANIZATION_ROLE ( 'creator' ) ;
#368 = SECURITY_CLASSIFICATION_LEVEL ( 'unclassified' ) ;
#369 = AXIS2_PLACEMENT_3D ( 'NONE', #42, #215, #8 ) ;
#370 = APPLICATION_PROTOCOL_DEFINITION ( 'international standard', 'config_control_design', 1994, #78 ) ;
#371 = APPROVAL_DATE_TIME ( #66, #4 ) ;
#372 =( BOUNDED_CURVE ( )  B_SPLINE_CURVE ( 3, ( #65, #101, #214, #5 ),
 .UNSPECIFIED., .F., .T. ) 
 B_SPLINE_CURVE_WITH_KNOTS ( ( 4, 4 ),
 ( 1.570796326794896600, 4.712388980384689700 ),
 .UNSPECIFIED. ) 
 CURVE ( )  GEOMETRIC_REPRESENTATION_ITEM ( )  RATIONAL_B_SPLINE_CURVE ( ( 1.000000000000000000, 0.3333333333333333700, 0.3333333333333333700, 1.000000000000000000 ) ) 
 REPRESENTATION_ITEM ( '' )  );
#373 = EDGE_LOOP ( 'NONE', ( #258 ) ) ;
#374 = ORIENTED_EDGE ( 'NONE', *, *, #77, .T. ) ;
#375 = AXIS2_PLACEMENT_3D ( 'NONE', #174, #31, #380 ) ;
#376 = CONICAL_SURFACE ( 'NONE', #261, 2.362204724409449100, 0.7853981633974482800 ) ;
#377 = AXIS2_PLACEMENT_3D ( 'NONE', #202, #54, #57 ) ;
#378 = ADVANCED_FACE ( 'NONE', ( #286, #173 ), #267, .T. ) ;
#379 = FACE_OUTER_BOUND ( 'NONE', #359, .T. ) ;
#380 = DIRECTION ( 'NONE',  ( 0.0000000000000000000, 0.0000000000000000000, -1.000000000000000000 ) ) ;
#381 = PLANE ( 'NONE',  #37 ) ;
#382 = EDGE_CURVE ( 'NONE', #27, #27, #99, .T. ) ;
#383 = APPROVAL_PERSON_ORGANIZATION ( #76, #4, #46 ) ;
#384 = DIRECTION ( 'NONE',  ( -0.0000000000000000000, -1.000000000000000000, -0.0000000000000000000 ) ) ;
#385 = EDGE_LOOP ( 'NONE', ( #247 ) ) ;
#386 = EDGE_LOOP ( 'NONE', ( #132 ) ) ;
ENDSEC;
END-ISO-10303-21;
