ISO-10303-21;
HEADER;
FILE_DESCRIPTION (( 'STEP AP203' ),
    '1' );
FILE_NAME ('581246020.STEP',
    '2017-07-27T19:31:11',
    ( '' ),
    ( '' ),
    'SwSTEP 2.0',
    'SolidWorks 2017',
    '' );
FILE_SCHEMA (( 'CONFIG_CONTROL_DESIGN' ));
ENDSEC;

DATA;
#1 = DIRECTION ( 'NONE',  ( 0.0000000000000000000, 0.0000000000000000000, -1.000000000000000000 ) ) ;
#2 = CC_DESIGN_APPROVAL ( #82, ( #73 ) ) ;
#3 = PRODUCT_DEFINITION_FORMATION_WITH_SPECIFIED_SOURCE ( 'ANY', '', #176, .NOT_KNOWN. ) ;
#4 = DIRECTION ( 'NONE',  ( -3.469446951953614200E-018, -1.000000000000000000, 2.888894916580846900E-034 ) ) ;
#5 = AXIS2_PLACEMENT_3D ( 'NONE', #279, #373, #75 ) ;
#6 = VERTEX_POINT ( 'NONE', #98 ) ;
#7 = AXIS2_PLACEMENT_3D ( 'NONE', #30, #231, #69 ) ;
#8 = APPROVAL_PERSON_ORGANIZATION ( #261, #9, #369 ) ;
#9 = APPROVAL ( #237, 'UNSPECIFIED' ) ;
#10 = ADVANCED_FACE ( 'NONE', ( #335, #119, #378 ), #313, .T. ) ;
#11 = DIRECTION ( 'NONE',  ( 0.0000000000000000000, 2.888894916580846900E-034, -1.000000000000000000 ) ) ;
#12 = PERSON_AND_ORGANIZATION_ROLE ( 'classification_officer' ) ;
#13 = ORIENTED_EDGE ( 'NONE', *, *, #170, .T. ) ;
#14 = LOCAL_TIME ( 15, 31, 11.00000000000000000, #227 ) ;
#15 = CARTESIAN_POINT ( 'NONE',  ( 0.0000000000000000000, 3.582684640641601500E-034, -1.240157480314960600 ) ) ;
#16 = PLANE ( 'NONE',  #272 ) ;
#17 = ORIENTED_EDGE ( 'NONE', *, *, #126, .T. ) ;
#18 = EDGE_LOOP ( 'NONE', ( #342 ) ) ;
#19 = CC_DESIGN_PERSON_AND_ORGANIZATION_ASSIGNMENT ( #311, #304, ( #3 ) ) ;
#20 =( CONVERSION_BASED_UNIT ( 'INCH', #221 ) LENGTH_UNIT ( ) NAMED_UNIT ( #33 ) );
#21 = VERTEX_POINT ( 'NONE', #150 ) ;
#22 = DIRECTION ( 'NONE',  ( 0.0000000000000000000, -2.888894916580846900E-034, 1.000000000000000000 ) ) ;
#23 = CARTESIAN_POINT ( 'NONE',  ( -0.1259842519685053500, 2.708661417322833800, 1.354330708661416500 ) ) ;
#24 = COORDINATED_UNIVERSAL_TIME_OFFSET ( 5, 0, .BEHIND. ) ;
#25 = CARTESIAN_POINT ( 'NONE',  ( -4.685039370078740700, -1.625449556230236800E-017, 4.549440813513155700E-032 ) ) ;
#26 = DATE_AND_TIME ( #128, #187 ) ;
#27 = ORIENTED_EDGE ( 'NONE', *, *, #278, .T. ) ;
#28 = CARTESIAN_POINT ( 'NONE',  ( -4.685039370078740700, -1.625449556230236800E-017, -1.240157480314960600 ) ) ;
#29 = AXIS2_PLACEMENT_3D ( 'NONE', #347, #204, #193 ) ;
#30 = CARTESIAN_POINT ( 'NONE',  ( 0.03937007874015751400, 1.365923996832132300E-019, 0.0000000000000000000 ) ) ;
#31 = CARTESIAN_POINT ( 'NONE',  ( -2.834645669291338900, 2.834645669291338900, -1.240157480314960600 ) ) ;
#32 = DIRECTION ( 'NONE',  ( 0.0000000000000000000, 1.000000000000000000, -2.449212707644750600E-016 ) ) ;
#33 = DIMENSIONAL_EXPONENTS ( 1.000000000000000000, 0.0000000000000000000, 0.0000000000000000000, 0.0000000000000000000, 0.0000000000000000000, 0.0000000000000000000, 0.0000000000000000000 ) ;
#34 = ORIENTED_EDGE ( 'NONE', *, *, #298, .T. ) ;
#35 = LOCAL_TIME ( 15, 31, 11.00000000000000000, #24 ) ;
#36 = DIRECTION ( 'NONE',  ( 1.000000000000000000, 0.0000000000000000000, -2.449212707644390200E-016 ) ) ;
#37 = ORIENTED_EDGE ( 'NONE', *, *, #289, .T. ) ;
#38 = CARTESIAN_POINT ( 'NONE',  ( -1.480314960629921300, 1.736220472440944900, -3.317043982006576200E-016 ) ) ;
#39 = CARTESIAN_POINT ( 'NONE',  ( -2.834645669291338900, 5.212090379384600500E-017, 1.011811023622047200 ) ) ;
#40 = CALENDAR_DATE ( 2017, 27, 7 ) ;
#41 = CARTESIAN_POINT ( 'NONE',  ( -1.098425196850393500, -3.810927951161646500E-018, 3.032960542342103800E-032 ) ) ;
#42 = ADVANCED_FACE ( 'NONE', ( #345, #344 ), #191, .T. ) ;
#43 = CARTESIAN_POINT ( 'NONE',  ( 0.0000000000000000000, 0.0000000000000000000, 0.0000000000000000000 ) ) ;
#44 = CARTESIAN_POINT ( 'NONE',  ( 0.0000000000000000000, 0.0000000000000000000, 0.0000000000000000000 ) ) ;
#45 = FACE_OUTER_BOUND ( 'NONE', #360, .T. ) ;
#46 = ORIENTED_EDGE ( 'NONE', *, *, #320, .F. ) ;
#47 = FACE_OUTER_BOUND ( 'NONE', #134, .T. ) ;
#48 = DIRECTION ( 'NONE',  ( 1.000000000000000000, 0.0000000000000000000, 0.0000000000000000000 ) ) ;
#49 = CARTESIAN_POINT ( 'NONE',  ( 0.0000000000000000000, 2.923015722682196000E-034, -1.011811023622047200 ) ) ;
#50 = ADVANCED_FACE ( 'NONE', ( #105, #72 ), #383, .F. ) ;
#51 = EDGE_LOOP ( 'NONE', ( #242, #157 ) ) ;
#52 = ORIENTED_EDGE ( 'NONE', *, *, #87, .T. ) ;
#53 = DESIGN_CONTEXT ( 'detailed design', #338, 'design' ) ;
#54 = EDGE_CURVE ( 'NONE', #152, #152, #181, .T. ) ;
#55 = EDGE_LOOP ( 'NONE', ( #375 ) ) ;
#56 = CARTESIAN_POINT ( 'NONE',  ( -4.858267716535433300, 2.023622047244094000, 1.011811023622047200 ) ) ;
#57 = FACE_OUTER_BOUND ( 'NONE', #230, .T. ) ;
#58 = FACE_OUTER_BOUND ( 'NONE', #164, .T. ) ;
#59 = APPROVAL_DATE_TIME ( #314, #82 ) ;
#60 = SHAPE_DEFINITION_REPRESENTATION ( #283, #349 ) ;
#61 = DIRECTION ( 'NONE',  ( 0.0000000000000000000, 0.0000000000000000000, -1.000000000000000000 ) ) ;
#62 = AXIS2_PLACEMENT_3D ( 'NONE', #265, #179, #340 ) ;
#63 = CARTESIAN_POINT ( 'NONE',  ( -2.834645669291338900, 1.850393700787401600, -1.240157480314960600 ) ) ;
#64 = AXIS2_PLACEMENT_3D ( 'NONE', #43, #209, #339 ) ;
#65 = ORIENTED_EDGE ( 'NONE', *, *, #298, .F. ) ;
#66 = AXIS2_PLACEMENT_3D ( 'NONE', #368, #168, #207 ) ;
#67 = ADVANCED_FACE ( 'NONE', ( #325, #194 ), #171, .T. ) ;
#68 =( BOUNDED_CURVE ( )  B_SPLINE_CURVE ( 3, ( #103, #367, #323, #318 ),
 .UNSPECIFIED., .F., .T. ) 
 B_SPLINE_CURVE_WITH_KNOTS ( ( 4, 4 ),
 ( 1.570796326794896800, 4.712388980384689700 ),
 .UNSPECIFIED. ) 
 CURVE ( )  GEOMETRIC_REPRESENTATION_ITEM ( )  RATIONAL_B_SPLINE_CURVE ( ( 1.000000000000000000, 0.3333333333333333700, 0.3333333333333333700, 1.000000000000000000 ) ) 
 REPRESENTATION_ITEM ( '' )  );
#69 = DIRECTION ( 'NONE',  ( 0.0000000000000000000, 2.927301107106085900E-034, -1.000000000000000000 ) ) ;
#70 = CARTESIAN_POINT ( 'NONE',  ( -2.834645669291338900, 1.736220472440944900, 0.0000000000000000000 ) ) ;
#71 = ORIENTED_EDGE ( 'NONE', *, *, #77, .F. ) ;
#72 = FACE_OUTER_BOUND ( 'NONE', #163, .T. ) ;
#73 = PRODUCT_DEFINITION ( 'UNKNOWN', '', #3, #53 ) ;
#74 = LOCAL_TIME ( 15, 31, 11.00000000000000000, #117 ) ;
#75 = DIRECTION ( 'NONE',  ( 0.0000000000000000000, 2.888894916580846900E-034, -1.000000000000000000 ) ) ;
#76 = ADVANCED_FACE ( 'NONE', ( #199, #362 ), #124, .T. ) ;
#77 = EDGE_CURVE ( 'NONE', #203, #166, #68, .T. ) ;
#78 = EDGE_LOOP ( 'NONE', ( #305 ) ) ;
#79 = ORIENTED_EDGE ( 'NONE', *, *, #294, .T. ) ;
#80 = DIRECTION ( 'NONE',  ( 0.0000000000000000000, -3.499145974540762200E-034, 1.000000000000000000 ) ) ;
#81 = DIRECTION ( 'NONE',  ( 3.469446951953614200E-018, 1.000000000000000000, -2.888894916580846900E-034 ) ) ;
#82 = APPROVAL ( #370, 'UNSPECIFIED' ) ;
#83 = VERTEX_POINT ( 'NONE', #31 ) ;
#84 = FACE_BOUND ( 'NONE', #18, .T. ) ;
#85 = FACE_BOUND ( 'NONE', #51, .T. ) ;
#86 = PERSON_AND_ORGANIZATION ( #295, #336 ) ;
#87 = EDGE_CURVE ( 'NONE', #218, #218, #284, .T. ) ;
#88 = ORIENTED_EDGE ( 'NONE', *, *, #189, .F. ) ;
#89 = DIRECTION ( 'NONE',  ( -3.469446951953614200E-018, -1.000000000000000000, 2.888894916580846900E-034 ) ) ;
#90 = CARTESIAN_POINT ( 'NONE',  ( -2.834645669291338900, -9.834652777191348300E-018, -1.011811023622047200 ) ) ;
#91 = VERTEX_POINT ( 'NONE', #333 ) ;
#92 = APPROVAL_ROLE ( '' ) ;
#93 =( NAMED_UNIT ( * ) SI_UNIT ( $, .STERADIAN. ) SOLID_ANGLE_UNIT ( ) );
#94 = AXIS2_PLACEMENT_3D ( 'NONE', #341, #208, #120 ) ;
#95 = VERTEX_POINT ( 'NONE', #156 ) ;
#96 = EDGE_LOOP ( 'NONE', ( #310 ) ) ;
#97 = CARTESIAN_POINT ( 'NONE',  ( -4.858267716535433300, 2.023622047244094400, -1.011811023622046600 ) ) ;
#98 = CARTESIAN_POINT ( 'NONE',  ( -4.570866141732284200, 1.354330708661417800, -3.317043982007064300E-016 ) ) ;
#99 = EDGE_LOOP ( 'NONE', ( #274 ) ) ;
#100 = CIRCLE ( 'NONE', #308, 1.240157480314960600 ) ;
#101 = APPROVAL ( #319, 'UNSPECIFIED' ) ;
#102 = EDGE_CURVE ( 'NONE', #254, #254, #343, .T. ) ;
#103 = CARTESIAN_POINT ( 'NONE',  ( -2.834645669291338900, -9.834652777191348300E-018, 1.354330708661417100 ) ) ;
#104 = CARTESIAN_POINT ( 'NONE',  ( -0.8110236220472449900, 2.023622047244094000, -1.011811023622047200 ) ) ;
#105 = FACE_OUTER_BOUND ( 'NONE', #317, .T. ) ;
#106 = VERTEX_POINT ( 'NONE', #49 ) ;
#107 = DIRECTION ( 'NONE',  ( -1.000000000000000000, -3.469446951953614200E-018, -0.0000000000000000000 ) ) ;
#108 = DIRECTION ( 'NONE',  ( 0.0000000000000000000, 0.0000000000000000000, -1.000000000000000000 ) ) ;
#109 = PERSON_AND_ORGANIZATION_ROLE ( 'design_supplier' ) ;
#110 = AXIS2_PLACEMENT_3D ( 'NONE', #273, #143, #327 ) ;
#111 = CYLINDRICAL_SURFACE ( 'NONE', #307, 1.354330708661417400 ) ;
#112 = SECURITY_CLASSIFICATION_LEVEL ( 'unclassified' ) ;
#113 = CC_DESIGN_SECURITY_CLASSIFICATION ( #239, ( #3 ) ) ;
#114 = CARTESIAN_POINT ( 'NONE',  ( -2.834645669291338900, -9.834652777191348300E-018, 1.354330708661417100 ) ) ;
#115 = DIRECTION ( 'NONE',  ( 3.469446951953614200E-018, 1.000000000000000000, -2.888894916580846900E-034 ) ) ;
#116 = CC_DESIGN_PERSON_AND_ORGANIZATION_ASSIGNMENT ( #315, #12, ( #239 ) ) ;
#117 = COORDINATED_UNIVERSAL_TIME_OFFSET ( 5, 0, .BEHIND. ) ;
#118 = DIRECTION ( 'NONE',  ( 0.0000000000000000000, 0.0000000000000000000, 1.000000000000000000 ) ) ;
#119 = FACE_OUTER_BOUND ( 'NONE', #96, .T. ) ;
#120 = DIRECTION ( 'NONE',  ( 0.0000000000000000000, 0.0000000000000000000, -1.000000000000000000 ) ) ;
#121 = AXIS2_PLACEMENT_3D ( 'NONE', #332, #296, #61 ) ;
#122 = COORDINATED_UNIVERSAL_TIME_OFFSET ( 5, 0, .BEHIND. ) ;
#123 =( BOUNDED_CURVE ( )  B_SPLINE_CURVE ( 3, ( #366, #56, #97, #329 ),
 .UNSPECIFIED., .F., .T. ) 
 B_SPLINE_CURVE_WITH_KNOTS ( ( 4, 4 ),
 ( 1.570796326794896600, 4.712388980384689700 ),
 .UNSPECIFIED. ) 
 CURVE ( )  GEOMETRIC_REPRESENTATION_ITEM ( )  RATIONAL_B_SPLINE_CURVE ( ( 1.000000000000000000, 0.3333333333333333700, 0.3333333333333333700, 1.000000000000000000 ) ) 
 REPRESENTATION_ITEM ( '' )  );
#124 = CYLINDRICAL_SURFACE ( 'NONE', #154, 1.240157480314960600 ) ;
#125 = CIRCLE ( 'NONE', #226, 1.354330708661417800 ) ;
#126 = EDGE_CURVE ( 'NONE', #166, #203, #377, .T. ) ;
#127 = CYLINDRICAL_SURFACE ( 'NONE', #110, 1.240157480314960600 ) ;
#128 = CALENDAR_DATE ( 2017, 27, 7 ) ;
#129 = DIRECTION ( 'NONE',  ( 0.0000000000000000000, 0.0000000000000000000, -1.000000000000000000 ) ) ;
#130 = CARTESIAN_POINT ( 'NONE',  ( -5.669291338582677800, -1.966930555438269700E-017, -1.011811023622047200 ) ) ;
#131 = CALENDAR_DATE ( 2017, 27, 7 ) ;
#132 = ORIENTED_EDGE ( 'NONE', *, *, #77, .T. ) ;
#133 = VERTEX_POINT ( 'NONE', #130 ) ;
#134 = EDGE_LOOP ( 'NONE', ( #13 ) ) ;
#135 = APPLICATION_PROTOCOL_DEFINITION ( 'international standard', 'config_control_design', 1994, #338 ) ;
#136 = CARTESIAN_POINT ( 'NONE',  ( -2.214566929133858300, 2.834645669291338900, -1.518704730134051300E-016 ) ) ;
#137 = AXIS2_PLACEMENT_3D ( 'NONE', #25, #148, #216 ) ;
#138 = CARTESIAN_POINT ( 'NONE',  ( 0.0000000000000000000, 0.0000000000000000000, 0.0000000000000000000 ) ) ;
#139 = DIRECTION ( 'NONE',  ( -3.469446951953614200E-018, -1.000000000000000000, 2.888894916580846900E-034 ) ) ;
#140 = EDGE_LOOP ( 'NONE', ( #249 ) ) ;
#141 = APPROVAL_ROLE ( '' ) ;
#142 = CARTESIAN_POINT ( 'NONE',  ( -1.098425196850393500, 1.354330708661417100, -3.317043982007062800E-016 ) ) ;
#143 = DIRECTION ( 'NONE',  ( 1.000000000000000000, 3.469446951953614200E-018, 0.0000000000000000000 ) ) ;
#144 = CYLINDRICAL_SURFACE ( 'NONE', #7, 1.011811023622047200 ) ;
#145 = VERTEX_POINT ( 'NONE', #142 ) ;
#146 = CARTESIAN_POINT ( 'NONE',  ( -2.834645669291338900, 2.342519685039370400, 0.0000000000000000000 ) ) ;
#147 = AXIS2_PLACEMENT_3D ( 'NONE', #165, #386, #212 ) ;
#148 = DIRECTION ( 'NONE',  ( -1.000000000000000000, -3.469446951953614200E-018, -0.0000000000000000000 ) ) ;
#149 = PERSON_AND_ORGANIZATION ( #295, #336 ) ;
#150 = CARTESIAN_POINT ( 'NONE',  ( -2.834645669291338900, 5.212090379384600500E-017, 1.011811023622047200 ) ) ;
#151 = EDGE_CURVE ( 'NONE', #106, #106, #213, .T. ) ;
#152 = VERTEX_POINT ( 'NONE', #63 ) ;
#153 = APPROVAL_DATE_TIME ( #246, #101 ) ;
#154 = AXIS2_PLACEMENT_3D ( 'NONE', #146, #139, #228 ) ;
#155 = EDGE_LOOP ( 'NONE', ( #88 ) ) ;
#156 = CARTESIAN_POINT ( 'NONE',  ( -2.834645669291338900, -9.834652777191348300E-018, -1.011811023622047200 ) ) ;
#157 = ORIENTED_EDGE ( 'NONE', *, *, #160, .F. ) ;
#158 = DIRECTION ( 'NONE',  ( 0.0000000000000000000, -2.888894916580846900E-034, 1.000000000000000000 ) ) ;
#159 = DIRECTION ( 'NONE',  ( -1.000000000000000000, -3.469446951953614200E-018, 0.0000000000000000000 ) ) ;
#160 = EDGE_CURVE ( 'NONE', #95, #21, #346, .T. ) ;
#161 = AXIS2_PLACEMENT_3D ( 'NONE', #70, #81, #36 ) ;
#162 = DIRECTION ( 'NONE',  ( 3.469446951953614200E-018, 1.000000000000000000, 2.888894916580846900E-034 ) ) ;
#163 = EDGE_LOOP ( 'NONE', ( #257 ) ) ;
#164 = EDGE_LOOP ( 'NONE', ( #211 ) ) ;
#165 = CARTESIAN_POINT ( 'NONE',  ( -2.834645669291338900, 2.834645669291338900, 0.0000000000000000000 ) ) ;
#166 = VERTEX_POINT ( 'NONE', #253 ) ;
#167 = CARTESIAN_POINT ( 'NONE',  ( -1.098425196850393500, -3.810927951161646500E-018, 3.032960542342103800E-032 ) ) ;
#168 = DIRECTION ( 'NONE',  ( 1.000000000000000000, 3.469446951953614200E-018, 0.0000000000000000000 ) ) ;
#169 = FACE_BOUND ( 'NONE', #364, .T. ) ;
#170 = EDGE_CURVE ( 'NONE', #145, #145, #357, .T. ) ;
#171 = CONICAL_SURFACE ( 'NONE', #290, 1.354330708661417800, 0.7853981633974520500 ) ;
#172 = FACE_OUTER_BOUND ( 'NONE', #183, .T. ) ;
#173 = UNCERTAINTY_MEASURE_WITH_UNIT (LENGTH_MEASURE( 1.000000000000000100E-005 ), #20, 'distance_accuracy_value', 'NONE');
#174 = DIRECTION ( 'NONE',  ( 0.0000000000000000000, 0.0000000000000000000, -1.000000000000000000 ) ) ;
#175 = AXIS2_PLACEMENT_3D ( 'NONE', #138, #188, #11 ) ;
#176 = PRODUCT ( '581246020', '581246020', '', ( #352 ) ) ;
#177 = PLANE ( 'NONE',  #5 ) ;
#178 = APPROVAL_PERSON_ORGANIZATION ( #196, #82, #92 ) ;
#179 = DIRECTION ( 'NONE',  ( 1.000000000000000000, 3.469446951953532500E-018, -2.017120320903263700E-016 ) ) ;
#180 = CARTESIAN_POINT ( 'NONE',  ( -4.570866141732284200, -1.585837760322105000E-017, 4.549440813513155700E-032 ) ) ;
#181 = CIRCLE ( 'NONE', #382, 1.240157480314960600 ) ;
#182 = DIRECTION ( 'NONE',  ( 1.000000000000000000, 3.469446951953614200E-018, 0.0000000000000000000 ) ) ;
#183 = EDGE_LOOP ( 'NONE', ( #79 ) ) ;
#184 = DIRECTION ( 'NONE',  ( 0.0000000000000000000, 1.000000000000000000, -2.449212707644750100E-016 ) ) ;
#185 =( LENGTH_UNIT ( ) NAMED_UNIT ( * ) SI_UNIT ( $, .METRE. ) );
#186 = CC_DESIGN_PERSON_AND_ORGANIZATION_ASSIGNMENT ( #291, #288, ( #73 ) ) ;
#187 = LOCAL_TIME ( 15, 31, 11.00000000000000000, #122 ) ;
#188 = DIRECTION ( 'NONE',  ( 1.000000000000000000, 3.469446951953614200E-018, 0.0000000000000000000 ) ) ;
#189 = EDGE_CURVE ( 'NONE', #83, #83, #380, .T. ) ;
#190 = VERTEX_POINT ( 'NONE', #28 ) ;
#191 = PLANE ( 'NONE',  #255 ) ;
#192 = CARTESIAN_POINT ( 'NONE',  ( -2.834645669291338900, -9.834652777191348300E-018, -1.354330708661417100 ) ) ;
#193 = DIRECTION ( 'NONE',  ( 0.0000000000000000000, 0.0000000000000000000, -1.000000000000000000 ) ) ;
#194 = FACE_OUTER_BOUND ( 'NONE', #256, .T. ) ;
#195 = VERTEX_POINT ( 'NONE', #371 ) ;
#196 = PERSON_AND_ORGANIZATION ( #295, #336 ) ;
#197 = EDGE_LOOP ( 'NONE', ( #350 ) ) ;
#198 = CONICAL_SURFACE ( 'NONE', #62, 1.354330708661417600, 0.7853981633974530500 ) ;
#199 = FACE_OUTER_BOUND ( 'NONE', #155, .T. ) ;
#200 = FACE_OUTER_BOUND ( 'NONE', #140, .T. ) ;
#201 = CARTESIAN_POINT ( 'NONE',  ( -2.834645669291338900, 1.736220472440944900, 0.0000000000000000000 ) ) ;
#202 = APPLICATION_CONTEXT ( 'configuration controlled 3d designs of mechanical parts and assemblies' ) ;
#203 = VERTEX_POINT ( 'NONE', #114 ) ;
#204 = DIRECTION ( 'NONE',  ( 1.000000000000000000, 3.469446951953614200E-018, 0.0000000000000000000 ) ) ;
#205 = CIRCLE ( 'NONE', #359, 1.240157480314960600 ) ;
#206 = FACE_OUTER_BOUND ( 'NONE', #219, .T. ) ;
#207 = DIRECTION ( 'NONE',  ( 0.0000000000000000000, 3.821289572196896600E-034, -1.000000000000000000 ) ) ;
#208 = DIRECTION ( 'NONE',  ( 1.000000000000000000, 3.469446951953614200E-018, 0.0000000000000000000 ) ) ;
#209 = DIRECTION ( 'NONE',  ( -1.000000000000000000, -3.469446951953614200E-018, -0.0000000000000000000 ) ) ;
#210 = ADVANCED_FACE ( 'NONE', ( #252, #299 ), #177, .T. ) ;
#211 = ORIENTED_EDGE ( 'NONE', *, *, #189, .T. ) ;
#212 = DIRECTION ( 'NONE',  ( 0.0000000000000000000, 0.0000000000000000000, -1.000000000000000000 ) ) ;
#213 = CIRCLE ( 'NONE', #64, 1.011811023622047200 ) ;
#214 = CC_DESIGN_PERSON_AND_ORGANIZATION_ASSIGNMENT ( #86, #109, ( #3 ) ) ;
#215 = AXIS2_PLACEMENT_3D ( 'NONE', #44, #118, #48 ) ;
#216 = DIRECTION ( 'NONE',  ( 0.0000000000000000000, 0.0000000000000000000, -1.000000000000000000 ) ) ;
#217 = EDGE_LOOP ( 'NONE', ( #34 ) ) ;
#218 = VERTEX_POINT ( 'NONE', #38 ) ;
#219 = EDGE_LOOP ( 'NONE', ( #244 ) ) ;
#220 = CARTESIAN_POINT ( 'NONE',  ( -0.9842519685039370400, -3.414809992080329000E-018, 1.516480271171051900E-032 ) ) ;
#221 = LENGTH_MEASURE_WITH_UNIT ( LENGTH_MEASURE( 0.02539999999999999900 ), #185 );
#222 = EDGE_CURVE ( 'NONE', #21, #95, #123, .T. ) ;
#223 = CIRCLE ( 'NONE', #147, 1.011811023622047200 ) ;
#224 = ORIENTED_EDGE ( 'NONE', *, *, #102, .T. ) ;
#225 = LOCAL_TIME ( 15, 31, 11.00000000000000000, #232 ) ;
#226 = AXIS2_PLACEMENT_3D ( 'NONE', #180, #376, #32 ) ;
#227 = COORDINATED_UNIVERSAL_TIME_OFFSET ( 5, 0, .BEHIND. ) ;
#228 = DIRECTION ( 'NONE',  ( 0.0000000000000000000, 0.0000000000000000000, -1.000000000000000000 ) ) ;
#229 = CARTESIAN_POINT ( 'NONE',  ( -2.834645669291338900, 2.834645669291338900, -1.011811023622047200 ) ) ;
#230 = EDGE_LOOP ( 'NONE', ( #363 ) ) ;
#231 = DIRECTION ( 'NONE',  ( 1.000000000000000000, 3.469446951953614200E-018, 0.0000000000000000000 ) ) ;
#232 = COORDINATED_UNIVERSAL_TIME_OFFSET ( 5, 0, .BEHIND. ) ;
#233 = APPROVAL_DATE_TIME ( #381, #9 ) ;
#234 = DIRECTION ( 'NONE',  ( 0.0000000000000000000, 0.0000000000000000000, -1.000000000000000000 ) ) ;
#235 = FACE_BOUND ( 'NONE', #353, .T. ) ;
#236 = EDGE_LOOP ( 'NONE', ( #266 ) ) ;
#237 = APPROVAL_STATUS ( 'not_yet_approved' ) ;
#238 = CALENDAR_DATE ( 2017, 27, 7 ) ;
#239 = SECURITY_CLASSIFICATION ( '', '', #112 ) ;
#240 = FACE_OUTER_BOUND ( 'NONE', #331, .T. ) ;
#241 = CARTESIAN_POINT ( 'NONE',  ( -2.834645669291338900, -9.834652777191348300E-018, 1.354330708661417100 ) ) ;
#242 = ORIENTED_EDGE ( 'NONE', *, *, #222, .F. ) ;
#243 = CC_DESIGN_APPROVAL ( #101, ( #239 ) ) ;
#244 = ORIENTED_EDGE ( 'NONE', *, *, #258, .F. ) ;
#245 = CC_DESIGN_DATE_AND_TIME_ASSIGNMENT ( #26, #321, ( #73 ) ) ;
#246 = DATE_AND_TIME ( #131, #74 ) ;
#247 = ORIENTED_EDGE ( 'NONE', *, *, #151, .T. ) ;
#248 = CYLINDRICAL_SURFACE ( 'NONE', #66, 1.240157480314960600 ) ;
#249 = ORIENTED_EDGE ( 'NONE', *, *, #151, .F. ) ;
#250 = CIRCLE ( 'NONE', #137, 1.240157480314960600 ) ;
#251 = ORIENTED_EDGE ( 'NONE', *, *, #160, .T. ) ;
#252 = FACE_OUTER_BOUND ( 'NONE', #303, .T. ) ;
#253 = CARTESIAN_POINT ( 'NONE',  ( -2.834645669291338900, -9.834652777191348300E-018, -1.354330708661417100 ) ) ;
#254 = VERTEX_POINT ( 'NONE', #15 ) ;
#255 = AXIS2_PLACEMENT_3D ( 'NONE', #365, #354, #22 ) ;
#256 = EDGE_LOOP ( 'NONE', ( #52 ) ) ;
#257 = ORIENTED_EDGE ( 'NONE', *, *, #289, .F. ) ;
#258 = EDGE_CURVE ( 'NONE', #133, #133, #286, .T. ) ;
#259 = CARTESIAN_POINT ( 'NONE',  ( -0.8110236220472449900, 2.023622047244094400, 1.011811023622046600 ) ) ;
#260 = DIRECTION ( 'NONE',  ( 0.0000000000000000000, 3.821289572196896600E-034, -1.000000000000000000 ) ) ;
#261 = PERSON_AND_ORGANIZATION ( #295, #336 ) ;
#262 = CALENDAR_DATE ( 2017, 27, 7 ) ;
#263 = ORIENTED_EDGE ( 'NONE', *, *, #320, .T. ) ;
#264 = DATE_AND_TIME ( #238, #225 ) ;
#265 = CARTESIAN_POINT ( 'NONE',  ( -4.570866141732284200, -1.585837760322105000E-017, 4.549440813513155700E-032 ) ) ;
#266 = ORIENTED_EDGE ( 'NONE', *, *, #87, .F. ) ;
#267 = DIRECTION ( 'NONE',  ( 1.000000000000000000, 3.469446951953614200E-018, -0.0000000000000000000 ) ) ;
#268 = FACE_OUTER_BOUND ( 'NONE', #236, .T. ) ;
#269 = CARTESIAN_POINT ( 'NONE',  ( -2.834645669291338900, 0.8681102362204724500, 0.0000000000000000000 ) ) ;
#270 = CLOSED_SHELL ( 'NONE', ( #316, #42, #210, #50, #330, #324, #374, #302, #322, #76, #10, #67, #334 ) ) ;
#271 = ORIENTED_EDGE ( 'NONE', *, *, #222, .T. ) ;
#272 = AXIS2_PLACEMENT_3D ( 'NONE', #136, #162, #158 ) ;
#273 = CARTESIAN_POINT ( 'NONE',  ( -5.177165354330709200, -1.796190055834253200E-017, 4.549440813513155700E-032 ) ) ;
#274 = ORIENTED_EDGE ( 'NONE', *, *, #54, .F. ) ;
#275 = FACE_OUTER_BOUND ( 'NONE', #217, .T. ) ;
#276 = EDGE_LOOP ( 'NONE', ( #263 ) ) ;
#277 = EDGE_LOOP ( 'NONE', ( #71, #281 ) ) ;
#278 = EDGE_CURVE ( 'NONE', #6, #6, #125, .T. ) ;
#279 = CARTESIAN_POINT ( 'NONE',  ( 0.0000000000000000000, 0.6200787401574803200, -1.518704730134051300E-016 ) ) ;
#280 = AXIS2_PLACEMENT_3D ( 'NONE', #326, #115, #108 ) ;
#281 = ORIENTED_EDGE ( 'NONE', *, *, #126, .F. ) ;
#282 = EDGE_LOOP ( 'NONE', ( #247 ) ) ;
#283 = PRODUCT_DEFINITION_SHAPE ( 'NONE', 'NONE',  #73 ) ;
#284 = CIRCLE ( 'NONE', #161, 1.354330708661417600 ) ;
#285 = AXIS2_PLACEMENT_3D ( 'NONE', #167, #267, #184 ) ;
#286 = CIRCLE ( 'NONE', #29, 1.011811023622047200 ) ;
#287 = FACE_OUTER_BOUND ( 'NONE', #277, .T. ) ;
#288 = PERSON_AND_ORGANIZATION_ROLE ( 'creator' ) ;
#289 = EDGE_CURVE ( 'NONE', #300, #300, #223, .T. ) ;
#290 = AXIS2_PLACEMENT_3D ( 'NONE', #201, #89, #234 ) ;
#291 = PERSON_AND_ORGANIZATION ( #295, #336 ) ;
#292 = CARTESIAN_POINT ( 'NONE',  ( -2.834645669291338900, 1.850393700787401600, 0.0000000000000000000 ) ) ;
#293 = PERSON_AND_ORGANIZATION_ROLE ( 'design_owner' ) ;
#294 = EDGE_CURVE ( 'NONE', #91, #91, #205, .T. ) ;
#295 = PERSON ( 'UNSPECIFIED', 'UNSPECIFIED', 'UNSPECIFIED', ('UNSPECIFIED'), ('UNSPECIFIED'), ('UNSPECIFIED') ) ;
#296 = DIRECTION ( 'NONE',  ( -3.469446951953614200E-018, -1.000000000000000000, 2.888894916580846900E-034 ) ) ;
#297 = MANIFOLD_SOLID_BREP ( '1', #270 ) ;
#298 = EDGE_CURVE ( 'NONE', #190, #190, #250, .T. ) ;
#299 = FACE_BOUND ( 'NONE', #282, .T. ) ;
#300 = VERTEX_POINT ( 'NONE', #229 ) ;
#301 = PRODUCT_RELATED_PRODUCT_CATEGORY ( 'detail', '', ( #176 ) ) ;
#302 = ADVANCED_FACE ( 'NONE', ( #169, #240 ), #198, .T. ) ;
#303 = EDGE_LOOP ( 'NONE', ( #224 ) ) ;
#304 = PERSON_AND_ORGANIZATION_ROLE ( 'creator' ) ;
#305 = ORIENTED_EDGE ( 'NONE', *, *, #170, .F. ) ;
#306 = APPLICATION_PROTOCOL_DEFINITION ( 'international standard', 'config_control_design', 1994, #202 ) ;
#307 = AXIS2_PLACEMENT_3D ( 'NONE', #269, #4, #1 ) ;
#308 = AXIS2_PLACEMENT_3D ( 'NONE', #379, #107, #129 ) ;
#309 = DATE_TIME_ROLE ( 'classification_date' ) ;
#310 = ORIENTED_EDGE ( 'NONE', *, *, #278, .F. ) ;
#311 = PERSON_AND_ORGANIZATION ( #295, #336 ) ;
#312 = CC_DESIGN_DATE_AND_TIME_ASSIGNMENT ( #264, #309, ( #239 ) ) ;
#313 = CYLINDRICAL_SURFACE ( 'NONE', #94, 1.354330708661417400 ) ;
#314 = DATE_AND_TIME ( #40, #35 ) ;
#315 = PERSON_AND_ORGANIZATION ( #295, #336 ) ;
#316 = ADVANCED_FACE ( 'NONE', ( #85, #206, #200 ), #144, .F. ) ;
#317 = EDGE_LOOP ( 'NONE', ( #251, #271 ) ) ;
#318 = CARTESIAN_POINT ( 'NONE',  ( -2.834645669291338900, -9.834652777191348300E-018, -1.354330708661417100 ) ) ;
#319 = APPROVAL_STATUS ( 'not_yet_approved' ) ;
#320 = EDGE_CURVE ( 'NONE', #195, #195, #100, .T. ) ;
#321 = DATE_TIME_ROLE ( 'creation_date' ) ;
#322 = ADVANCED_FACE ( 'NONE', ( #47, #84 ), #361, .T. ) ;
#323 = CARTESIAN_POINT ( 'NONE',  ( -5.543307086614172300, 2.708661417322833800, -1.354330708661416500 ) ) ;
#324 = ADVANCED_FACE ( 'NONE', ( #172, #57 ), #248, .T. ) ;
#325 = FACE_BOUND ( 'NONE', #99, .T. ) ;
#326 = CARTESIAN_POINT ( 'NONE',  ( -2.834645669291338900, 2.834645669291338900, 0.0000000000000000000 ) ) ;
#327 = DIRECTION ( 'NONE',  ( 0.0000000000000000000, 0.0000000000000000000, -1.000000000000000000 ) ) ;
#328 = PERSON_AND_ORGANIZATION ( #295, #336 ) ;
#329 = CARTESIAN_POINT ( 'NONE',  ( -2.834645669291338900, -9.834652777191348300E-018, -1.011811023622047200 ) ) ;
#330 = ADVANCED_FACE ( 'NONE', ( #45, #275 ), #127, .T. ) ;
#331 = EDGE_LOOP ( 'NONE', ( #27 ) ) ;
#332 = CARTESIAN_POINT ( 'NONE',  ( -2.834645669291338900, -9.834652777191348300E-018, 0.0000000000000000000 ) ) ;
#333 = CARTESIAN_POINT ( 'NONE',  ( -0.9842519685039370400, -3.414809992080328600E-018, -1.240157480314960600 ) ) ;
#334 = ADVANCED_FACE ( 'NONE', ( #268, #287 ), #111, .T. ) ;
#335 = FACE_BOUND ( 'NONE', #337, .T. ) ;
#336 = ORGANIZATION ( 'UNSPECIFIED', 'UNSPECIFIED', '' ) ;
#337 = EDGE_LOOP ( 'NONE', ( #132, #17 ) ) ;
#338 = APPLICATION_CONTEXT ( 'configuration controlled 3d designs of mechanical parts and assemblies' ) ;
#339 = DIRECTION ( 'NONE',  ( 0.0000000000000000000, 2.888894916580847400E-034, -1.000000000000000000 ) ) ;
#340 = DIRECTION ( 'NONE',  ( 0.0000000000000000000, 0.0000000000000000000, -1.000000000000000000 ) ) ;
#341 = CARTESIAN_POINT ( 'NONE',  ( -2.834645669291338900, -9.834652777191348300E-018, 0.0000000000000000000 ) ) ;
#342 = ORIENTED_EDGE ( 'NONE', *, *, #294, .F. ) ;
#343 = CIRCLE ( 'NONE', #175, 1.240157480314960600 ) ;
#344 = FACE_BOUND ( 'NONE', #55, .T. ) ;
#345 = FACE_OUTER_BOUND ( 'NONE', #276, .T. ) ;
#346 =( BOUNDED_CURVE ( )  B_SPLINE_CURVE ( 3, ( #90, #104, #259, #39 ),
 .UNSPECIFIED., .F., .T. ) 
 B_SPLINE_CURVE_WITH_KNOTS ( ( 4, 4 ),
 ( 1.570796326794896600, 4.712388980384689700 ),
 .UNSPECIFIED. ) 
 CURVE ( )  GEOMETRIC_REPRESENTATION_ITEM ( )  RATIONAL_B_SPLINE_CURVE ( ( 1.000000000000000000, 0.3333333333333333700, 0.3333333333333333700, 1.000000000000000000 ) ) 
 REPRESENTATION_ITEM ( '' )  );
#347 = CARTESIAN_POINT ( 'NONE',  ( -5.669291338582677800, -1.966930555438269700E-017, 0.0000000000000000000 ) ) ;
#348 =( GEOMETRIC_REPRESENTATION_CONTEXT ( 3 ) GLOBAL_UNCERTAINTY_ASSIGNED_CONTEXT ( ( #173 ) ) GLOBAL_UNIT_ASSIGNED_CONTEXT ( ( #20, #356, #93 ) ) REPRESENTATION_CONTEXT ( 'NONE', 'WORKASPACE' ) );
#349 = ADVANCED_BREP_SHAPE_REPRESENTATION ( '581246020', ( #297, #215 ), #348 ) ;
#350 = ORIENTED_EDGE ( 'NONE', *, *, #54, .T. ) ;
#351 = CARTESIAN_POINT ( 'NONE',  ( -0.1259842519685053500, 2.708661417322833800, -1.354330708661417400 ) ) ;
#352 = MECHANICAL_CONTEXT ( 'NONE', #202, 'mechanical' ) ;
#353 = EDGE_LOOP ( 'NONE', ( #37 ) ) ;
#354 = DIRECTION ( 'NONE',  ( -1.000000000000000000, -3.469446951953614200E-018, -1.002286766284571000E-051 ) ) ;
#355 = APPROVAL_PERSON_ORGANIZATION ( #149, #101, #141 ) ;
#356 =( NAMED_UNIT ( * ) PLANE_ANGLE_UNIT ( ) SI_UNIT ( $, .RADIAN. ) );
#357 = CIRCLE ( 'NONE', #285, 1.354330708661417100 ) ;
#358 = DIRECTION ( 'NONE',  ( 3.469446951953614200E-018, 1.000000000000000000, -2.888894916580846900E-034 ) ) ;
#359 = AXIS2_PLACEMENT_3D ( 'NONE', #220, #182, #260 ) ;
#360 = EDGE_LOOP ( 'NONE', ( #46 ) ) ;
#361 = CONICAL_SURFACE ( 'NONE', #384, 1.354330708661417600, 0.7853981633974525000 ) ;
#362 = FACE_OUTER_BOUND ( 'NONE', #197, .T. ) ;
#363 = ORIENTED_EDGE ( 'NONE', *, *, #102, .F. ) ;
#364 = EDGE_LOOP ( 'NONE', ( #65 ) ) ;
#365 = CARTESIAN_POINT ( 'NONE',  ( -5.669291338582677800, 0.6200787401574803200, -1.518704730134051300E-016 ) ) ;
#366 = CARTESIAN_POINT ( 'NONE',  ( -2.834645669291338900, 5.212090379384600500E-017, 1.011811023622047200 ) ) ;
#367 = CARTESIAN_POINT ( 'NONE',  ( -5.543307086614172300, 2.708661417322833800, 1.354330708661416500 ) ) ;
#368 = CARTESIAN_POINT ( 'NONE',  ( -0.4921259842519684100, -1.707404996040164300E-018, 1.516480271171051900E-032 ) ) ;
#369 = APPROVAL_ROLE ( '' ) ;
#370 = APPROVAL_STATUS ( 'not_yet_approved' ) ;
#371 = CARTESIAN_POINT ( 'NONE',  ( -5.669291338582677800, -1.966930555438269700E-017, -1.240157480314960600 ) ) ;
#372 = CC_DESIGN_PERSON_AND_ORGANIZATION_ASSIGNMENT ( #328, #293, ( #176 ) ) ;
#373 = DIRECTION ( 'NONE',  ( 1.000000000000000000, 3.469446951953614200E-018, 1.002286766284571000E-051 ) ) ;
#374 = ADVANCED_FACE ( 'NONE', ( #58, #235 ), #16, .T. ) ;
#375 = ORIENTED_EDGE ( 'NONE', *, *, #258, .T. ) ;
#376 = DIRECTION ( 'NONE',  ( -1.000000000000000000, -3.469446951953614200E-018, -0.0000000000000000000 ) ) ;
#377 =( BOUNDED_CURVE ( )  B_SPLINE_CURVE ( 3, ( #192, #351, #23, #241 ),
 .UNSPECIFIED., .F., .T. ) 
 B_SPLINE_CURVE_WITH_KNOTS ( ( 4, 4 ),
 ( 1.570796326794896600, 4.712388980384689700 ),
 .UNSPECIFIED. ) 
 CURVE ( )  GEOMETRIC_REPRESENTATION_ITEM ( )  RATIONAL_B_SPLINE_CURVE ( ( 1.000000000000000000, 0.3333333333333333700, 0.3333333333333333700, 1.000000000000000000 ) ) 
 REPRESENTATION_ITEM ( '' )  );
#378 = FACE_OUTER_BOUND ( 'NONE', #78, .T. ) ;
#379 = CARTESIAN_POINT ( 'NONE',  ( -5.669291338582677800, -1.966930555438269700E-017, 0.0000000000000000000 ) ) ;
#380 = CIRCLE ( 'NONE', #280, 1.240157480314960600 ) ;
#381 = DATE_AND_TIME ( #262, #14 ) ;
#382 = AXIS2_PLACEMENT_3D ( 'NONE', #292, #358, #174 ) ;
#383 = CYLINDRICAL_SURFACE ( 'NONE', #121, 1.011811023622047200 ) ;
#384 = AXIS2_PLACEMENT_3D ( 'NONE', #41, #159, #80 ) ;
#385 = CC_DESIGN_APPROVAL ( #9, ( #3 ) ) ;
#386 = DIRECTION ( 'NONE',  ( -3.469446951953614200E-018, -1.000000000000000000, 2.888894916580846900E-034 ) ) ;
ENDSEC;
END-ISO-10303-21;
