ISO-10303-21;
HEADER;
FILE_DESCRIPTION (( 'STEP AP203' ),
    '1' );
FILE_NAME ('581246015.STEP',
    '2017-07-27T19:28:49',
    ( '' ),
    ( '' ),
    'SwSTEP 2.0',
    'SolidWorks 2017',
    '' );
FILE_SCHEMA (( 'CONFIG_CONTROL_DESIGN' ));
ENDSEC;

DATA;
#1 = DESIGN_CONTEXT ( 'detailed design', #105, 'design' ) ;
#2 = COORDINATED_UNIVERSAL_TIME_OFFSET ( 5, 0, .BEHIND. ) ;
#3 = AXIS2_PLACEMENT_3D ( 'NONE', #265, #58, #45 ) ;
#4 = AXIS2_PLACEMENT_3D ( 'NONE', #248, #218, #217 ) ;
#5 = AXIS2_PLACEMENT_3D ( 'NONE', #144, #290, #96 ) ;
#6 = FACE_OUTER_BOUND ( 'NONE', #107, .T. ) ;
#7 = FACE_OUTER_BOUND ( 'NONE', #128, .T. ) ;
#8 = SECURITY_CLASSIFICATION_LEVEL ( 'unclassified' ) ;
#9 = CARTESIAN_POINT ( 'NONE',  ( -2.362204724409448600, 0.0000000000000000000, 0.8031496062992123900 ) ) ;
#10 = DIRECTION ( 'NONE',  ( -3.451266460341926600E-031, -1.000000000000000000, -1.026341648675403100E-048 ) ) ;
#11 = ADVANCED_FACE ( 'NONE', ( #92, #317 ), #370, .T. ) ;
#12 = FACE_BOUND ( 'NONE', #361, .T. ) ;
#13 = CYLINDRICAL_SURFACE ( 'NONE', #50, 0.9842519685039370400 ) ;
#14 = DIRECTION ( 'NONE',  ( 1.000000000000000000, 3.451266460341926600E-031, 0.0000000000000000000 ) ) ;
#15 = CIRCLE ( 'NONE', #22, 0.9842519685039370400 ) ;
#16 = ADVANCED_FACE ( 'NONE', ( #61, #42 ), #235, .T. ) ;
#17 = EDGE_LOOP ( 'NONE', ( #198 ) ) ;
#18 = DIRECTION ( 'NONE',  ( 0.0000000000000000000, 0.0000000000000000000, 1.000000000000000000 ) ) ;
#19 = ORIENTED_EDGE ( 'NONE', *, *, #148, .F. ) ;
#20 = CYLINDRICAL_SURFACE ( 'NONE', #154, 0.9842519685039370400 ) ;
#21 = EDGE_LOOP ( 'NONE', ( #360 ) ) ;
#22 = AXIS2_PLACEMENT_3D ( 'NONE', #189, #98, #67 ) ;
#23 = CARTESIAN_POINT ( 'NONE',  ( 0.0000000000000000000, 0.0000000000000000000, -0.9842519685039370400 ) ) ;
#24 = PLANE ( 'NONE',  #310 ) ;
#25 = EDGE_LOOP ( 'NONE', ( #108, #73 ) ) ;
#26 = DIRECTION ( 'NONE',  ( 1.000000000000000000, 3.451266460341926600E-031, 0.0000000000000000000 ) ) ;
#27 = VERTEX_POINT ( 'NONE', #90 ) ;
#28 = FACE_OUTER_BOUND ( 'NONE', #375, .T. ) ;
#29 = CC_DESIGN_APPROVAL ( #270, ( #245 ) ) ;
#30 = APPROVAL_PERSON_ORGANIZATION ( #114, #331, #51 ) ;
#31 =( BOUNDED_CURVE ( )  B_SPLINE_CURVE ( 3, ( #186, #169, #43, #9 ),
 .UNSPECIFIED., .F., .T. ) 
 B_SPLINE_CURVE_WITH_KNOTS ( ( 4, 4 ),
 ( 1.570796326794896600, 4.712388980384689700 ),
 .UNSPECIFIED. ) 
 CURVE ( )  GEOMETRIC_REPRESENTATION_ITEM ( )  RATIONAL_B_SPLINE_CURVE ( ( 1.000000000000000000, 0.3333333333333333700, 0.3333333333333333700, 1.000000000000000000 ) ) 
 REPRESENTATION_ITEM ( '' )  );
#32 = DIRECTION ( 'NONE',  ( -1.000000000000000000, -3.451266460341926200E-031, 0.0000000000000000000 ) ) ;
#33 = VERTEX_POINT ( 'NONE', #149 ) ;
#34 = FACE_OUTER_BOUND ( 'NONE', #366, .T. ) ;
#35 = ADVANCED_FACE ( 'NONE', ( #363, #253 ), #24, .T. ) ;
#36 = AXIS2_PLACEMENT_3D ( 'NONE', #53, #220, #95 ) ;
#37 = DIRECTION ( 'NONE',  ( -1.000000000000000000, -3.697785493223492800E-031, -6.354298446801489600E-017 ) ) ;
#38 = PRODUCT_DEFINITION_SHAPE ( 'NONE', 'NONE',  #306 ) ;
#39 = CC_DESIGN_DATE_AND_TIME_ASSIGNMENT ( #167, #335, ( #349 ) ) ;
#40 = CALENDAR_DATE ( 2017, 27, 7 ) ;
#41 = DIRECTION ( 'NONE',  ( 0.0000000000000000000, 0.0000000000000000000, -1.000000000000000000 ) ) ;
#42 = FACE_BOUND ( 'NONE', #21, .T. ) ;
#43 = CARTESIAN_POINT ( 'NONE',  ( -0.7559055118110240600, 1.606299212598424800, 0.8031496062992122800 ) ) ;
#44 = CARTESIAN_POINT ( 'NONE',  ( -2.362204724409448600, 1.366141732283462800, 5.023340898254108900E-032 ) ) ;
#45 = DIRECTION ( 'NONE',  ( 0.0000000000000000000, 0.0000000000000000000, -1.000000000000000000 ) ) ;
#46 = ORIENTED_EDGE ( 'NONE', *, *, #161, .T. ) ;
#47 = DIRECTION ( 'NONE',  ( 0.0000000000000000000, 0.0000000000000000000, -1.000000000000000000 ) ) ;
#48 = DATE_TIME_ROLE ( 'creation_date' ) ;
#49 = PERSON_AND_ORGANIZATION_ROLE ( 'design_supplier' ) ;
#50 = AXIS2_PLACEMENT_3D ( 'NONE', #118, #194, #263 ) ;
#51 = APPROVAL_ROLE ( '' ) ;
#52 = APPROVAL_STATUS ( 'not_yet_approved' ) ;
#53 = CARTESIAN_POINT ( 'NONE',  ( -4.724409448818897200, 0.0000000000000000000, -2.843400508445722300E-033 ) ) ;
#54 = APPROVAL_DATE_TIME ( #227, #91 ) ;
#55 = EDGE_LOOP ( 'NONE', ( #19 ) ) ;
#56 = LENGTH_MEASURE_WITH_UNIT ( LENGTH_MEASURE( 0.02539999999999999900 ), #233 );
#57 = VERTEX_POINT ( 'NONE', #156 ) ;
#58 = DIRECTION ( 'NONE',  ( -3.451266460341926600E-031, -1.000000000000000000, -1.026341648675403100E-048 ) ) ;
#59 = AXIS2_PLACEMENT_3D ( 'NONE', #314, #127, #117 ) ;
#60 = PERSON_AND_ORGANIZATION_ROLE ( 'creator' ) ;
#61 = FACE_OUTER_BOUND ( 'NONE', #342, .T. ) ;
#62 = CARTESIAN_POINT ( 'NONE',  ( 0.0000000000000000000, 0.0000000000000000000, 0.0000000000000000000 ) ) ;
#63 = VERTEX_POINT ( 'NONE', #23 ) ;
#64 = COORDINATED_UNIVERSAL_TIME_OFFSET ( 5, 0, .BEHIND. ) ;
#65 = ORIENTED_EDGE ( 'NONE', *, *, #386, .T. ) ;
#66 = PERSON_AND_ORGANIZATION ( #280, #238 ) ;
#67 = DIRECTION ( 'NONE',  ( 0.0000000000000000000, 0.0000000000000000000, -1.000000000000000000 ) ) ;
#68 = DIRECTION ( 'NONE',  ( 0.0000000000000000000, 0.0000000000000000000, -1.000000000000000000 ) ) ;
#69 = AXIS2_PLACEMENT_3D ( 'NONE', #272, #294, #168 ) ;
#70 = FACE_OUTER_BOUND ( 'NONE', #93, .T. ) ;
#71 = CALENDAR_DATE ( 2017, 27, 7 ) ;
#72 = ADVANCED_FACE ( 'NONE', ( #287, #339 ), #285, .T. ) ;
#73 = ORIENTED_EDGE ( 'NONE', *, *, #379, .F. ) ;
#74 = CARTESIAN_POINT ( 'NONE',  ( -3.818897637795275900, 0.0000000000000000000, -0.9842519685039370400 ) ) ;
#75 = DIRECTION ( 'NONE',  ( 3.451266460341926600E-031, 1.000000000000000000, 1.026341648675403100E-048 ) ) ;
#76 = UNCERTAINTY_MEASURE_WITH_UNIT (LENGTH_MEASURE( 1.000000000000000100E-005 ), #125, 'distance_accuracy_value', 'NONE');
#77 = DIRECTION ( 'NONE',  ( -3.451266460341926600E-031, -1.000000000000000000, -1.026341648675403100E-048 ) ) ;
#78 = ORIENTED_EDGE ( 'NONE', *, *, #379, .T. ) ;
#79 = EDGE_LOOP ( 'NONE', ( #376 ) ) ;
#80 = PERSON_AND_ORGANIZATION ( #280, #238 ) ;
#81 = CARTESIAN_POINT ( 'NONE',  ( -3.728346456692913900, 0.0000000000000000000, 1.232140220326479700E-032 ) ) ;
#82 = AXIS2_PLACEMENT_3D ( 'NONE', #81, #150, #129 ) ;
#83 = CARTESIAN_POINT ( 'NONE',  ( -2.362204724409448600, 0.0000000000000000000, 1.074803149606299100 ) ) ;
#84 = CARTESIAN_POINT ( 'NONE',  ( -0.9055118110236221000, 0.0000000000000000000, 9.478001694819074300E-034 ) ) ;
#85 = CC_DESIGN_APPROVAL ( #91, ( #306 ) ) ;
#86 = EDGE_LOOP ( 'NONE', ( #298 ) ) ;
#87 = CARTESIAN_POINT ( 'NONE',  ( -0.4527559055118108900, 0.0000000000000000000, 0.0000000000000000000 ) ) ;
#88 = EDGE_LOOP ( 'NONE', ( #180 ) ) ;
#89 = EDGE_CURVE ( 'NONE', #63, #63, #240, .T. ) ;
#90 = CARTESIAN_POINT ( 'NONE',  ( -2.362204724409448600, 1.456692913385828200, -0.9842519685039370400 ) ) ;
#91 = APPROVAL ( #295, 'UNSPECIFIED' ) ;
#92 = FACE_BOUND ( 'NONE', #79, .T. ) ;
#93 = EDGE_LOOP ( 'NONE', ( #275 ) ) ;
#94 = EDGE_CURVE ( 'NONE', #327, #377, #31, .T. ) ;
#95 = DIRECTION ( 'NONE',  ( 0.0000000000000000000, 0.0000000000000000000, -1.000000000000000000 ) ) ;
#96 = DIRECTION ( 'NONE',  ( 0.0000000000000000000, 0.0000000000000000000, -1.000000000000000000 ) ) ;
#97 = AXIS2_PLACEMENT_3D ( 'NONE', #62, #18, #260 ) ;
#98 = DIRECTION ( 'NONE',  ( 3.451266460341926600E-031, 1.000000000000000000, 1.026341648675403100E-048 ) ) ;
#99 = ORIENTED_EDGE ( 'NONE', *, *, #94, .F. ) ;
#100 = ADVANCED_BREP_SHAPE_REPRESENTATION ( '581246015', ( #247, #97 ), #374 ) ;
#101 = LOCAL_TIME ( 15, 28, 49.00000000000000000, #278 ) ;
#102 = CARTESIAN_POINT ( 'NONE',  ( -2.362204724409448600, 0.0000000000000000000, -1.074803149606299100 ) ) ;
#103 = CARTESIAN_POINT ( 'NONE',  ( -3.968503937007874100, 1.606299212598424800, -0.8031496062992122800 ) ) ;
#104 = EDGE_CURVE ( 'NONE', #158, #158, #362, .T. ) ;
#105 = APPLICATION_CONTEXT ( 'configuration controlled 3d designs of mechanical parts and assemblies' ) ;
#106 = CARTESIAN_POINT ( 'NONE',  ( 0.0000000000000000000, 0.0000000000000000000, 0.0000000000000000000 ) ) ;
#107 = EDGE_LOOP ( 'NONE', ( #309 ) ) ;
#108 = ORIENTED_EDGE ( 'NONE', *, *, #252, .F. ) ;
#109 = EDGE_LOOP ( 'NONE', ( #199 ) ) ;
#110 = CARTESIAN_POINT ( 'NONE',  ( -0.2125984251968504900, 2.149606299212598200, 1.074803149606298600 ) ) ;
#111 = DIRECTION ( 'NONE',  ( 0.0000000000000000000, 0.0000000000000000000, -1.000000000000000000 ) ) ;
#112 = PERSON_AND_ORGANIZATION ( #280, #238 ) ;
#113 = APPROVAL_STATUS ( 'not_yet_approved' ) ;
#114 = PERSON_AND_ORGANIZATION ( #280, #238 ) ;
#115 = CARTESIAN_POINT ( 'NONE',  ( 0.03937007874015751400, 0.0000000000000000000, 0.0000000000000000000 ) ) ;
#116 = CARTESIAN_POINT ( 'NONE',  ( -4.724409448818897200, 0.0000000000000000000, -0.8031496062992125000 ) ) ;
#117 = DIRECTION ( 'NONE',  ( 0.0000000000000000000, 0.0000000000000000000, -1.000000000000000000 ) ) ;
#118 = CARTESIAN_POINT ( 'NONE',  ( -4.271653543307087000, 0.0000000000000000000, -2.843400508445722300E-033 ) ) ;
#119 = CC_DESIGN_PERSON_AND_ORGANIZATION_ASSIGNMENT ( #210, #219, ( #306 ) ) ;
#120 = DIRECTION ( 'NONE',  ( 0.0000000000000000000, 0.0000000000000000000, -1.000000000000000000 ) ) ;
#121 = AXIS2_PLACEMENT_3D ( 'NONE', #131, #324, #140 ) ;
#122 = CIRCLE ( 'NONE', #59, 0.8031496062992125000 ) ;
#123 = FACE_OUTER_BOUND ( 'NONE', #109, .T. ) ;
#124 = PRODUCT_RELATED_PRODUCT_CATEGORY ( 'detail', '', ( #305 ) ) ;
#125 =( CONVERSION_BASED_UNIT ( 'INCH', #56 ) LENGTH_UNIT ( ) NAMED_UNIT ( #321 ) );
#126 = DIRECTION ( 'NONE',  ( 0.0000000000000000000, 0.0000000000000000000, 1.000000000000000000 ) ) ;
#127 = DIRECTION ( 'NONE',  ( 1.000000000000000000, 3.451266460341926600E-031, 0.0000000000000000000 ) ) ;
#128 = EDGE_LOOP ( 'NONE', ( #274 ) ) ;
#129 = DIRECTION ( 'NONE',  ( 0.0000000000000000000, 1.000000000000000000, -2.449212707644750600E-016 ) ) ;
#130 = CARTESIAN_POINT ( 'NONE',  ( -2.362204724409448600, 0.0000000000000000000, 1.074803149606299100 ) ) ;
#131 = CARTESIAN_POINT ( 'NONE',  ( -0.9960629921259841500, 0.0000000000000000000, 9.478001694819074300E-034 ) ) ;
#132 = CARTESIAN_POINT ( 'NONE',  ( -0.2125984251968507900, 2.149606299212598200, -1.074803149606299100 ) ) ;
#133 = ORIENTED_EDGE ( 'NONE', *, *, #89, .T. ) ;
#134 = AXIS2_PLACEMENT_3D ( 'NONE', #330, #332, #183 ) ;
#135 = ADVANCED_FACE ( 'NONE', ( #345, #236, #297 ), #221, .F. ) ;
#136 = EDGE_LOOP ( 'NONE', ( #336 ) ) ;
#137 = LOCAL_TIME ( 15, 28, 49.00000000000000000, #64 ) ;
#138 = ORIENTED_EDGE ( 'NONE', *, *, #351, .T. ) ;
#139 = ADVANCED_FACE ( 'NONE', ( #276, #348 ), #226, .T. ) ;
#140 = DIRECTION ( 'NONE',  ( 0.0000000000000000000, 1.000000000000000000, -2.449212707644750100E-016 ) ) ;
#141 = CARTESIAN_POINT ( 'NONE',  ( -2.362204724409448600, 2.362204724409450800, -2.843400508445722300E-033 ) ) ;
#142 = CARTESIAN_POINT ( 'NONE',  ( -4.511811023622047200, 2.149606299212598200, -1.074803149606298600 ) ) ;
#143 = APPLICATION_PROTOCOL_DEFINITION ( 'international standard', 'config_control_design', 1994, #105 ) ;
#144 = CARTESIAN_POINT ( 'NONE',  ( -2.362204724409448600, 0.0000000000000000000, -2.843400508445722300E-033 ) ) ;
#145 = COORDINATED_UNIVERSAL_TIME_OFFSET ( 5, 0, .BEHIND. ) ;
#146 = ADVANCED_FACE ( 'NONE', ( #367, #267 ), #13, .T. ) ;
#147 = CIRCLE ( 'NONE', #82, 1.074803149606299100 ) ;
#148 = EDGE_CURVE ( 'NONE', #177, #177, #279, .T. ) ;
#149 = CARTESIAN_POINT ( 'NONE',  ( -1.287401574803149500, 1.366141732283462800, -2.632421532232553100E-016 ) ) ;
#150 = DIRECTION ( 'NONE',  ( -1.000000000000000000, -3.451266460341926600E-031, -0.0000000000000000000 ) ) ;
#151 = DIRECTION ( 'NONE',  ( 1.000000000000000000, 3.451266460341926600E-031, 0.0000000000000000000 ) ) ;
#152 = CYLINDRICAL_SURFACE ( 'NONE', #281, 0.9842519685039370400 ) ;
#153 = DIRECTION ( 'NONE',  ( 0.0000000000000000000, 0.0000000000000000000, -1.000000000000000000 ) ) ;
#154 = AXIS2_PLACEMENT_3D ( 'NONE', #87, #269, #303 ) ;
#155 = CARTESIAN_POINT ( 'NONE',  ( -0.9960629921259841500, 1.074803149606299300, -2.632421532232349500E-016 ) ) ;
#156 = CARTESIAN_POINT ( 'NONE',  ( -2.362204724409448600, 2.362204724409450800, -0.9842519685039370400 ) ) ;
#157 = CIRCLE ( 'NONE', #237, 0.9842519685039370400 ) ;
#158 = VERTEX_POINT ( 'NONE', #357 ) ;
#159 = CALENDAR_DATE ( 2017, 27, 7 ) ;
#160 = CARTESIAN_POINT ( 'NONE',  ( -2.362204724409448600, 0.6830708661417314000, -2.843400508445722300E-033 ) ) ;
#161 = EDGE_CURVE ( 'NONE', #344, #344, #157, .T. ) ;
#162 = VERTEX_POINT ( 'NONE', #178 ) ;
#163 = PERSON_AND_ORGANIZATION ( #280, #238 ) ;
#164 = CARTESIAN_POINT ( 'NONE',  ( -3.728346456692913900, 0.0000000000000000000, 1.232140220326479700E-032 ) ) ;
#165 = VERTEX_POINT ( 'NONE', #116 ) ;
#166 = EDGE_CURVE ( 'NONE', #193, #193, #301, .T. ) ;
#167 = DATE_AND_TIME ( #251, #299 ) ;
#168 = DIRECTION ( 'NONE',  ( 0.0000000000000000000, 0.0000000000000000000, 1.000000000000000000 ) ) ;
#169 = CARTESIAN_POINT ( 'NONE',  ( -0.7559055118110241700, 1.606299212598424600, -0.8031496062992126200 ) ) ;
#170 = VERTEX_POINT ( 'NONE', #155 ) ;
#171 = ADVANCED_FACE ( 'NONE', ( #201, #249 ), #254, .T. ) ;
#172 = SHAPE_DEFINITION_REPRESENTATION ( #38, #100 ) ;
#173 = AXIS2_PLACEMENT_3D ( 'NONE', #311, #37, #346 ) ;
#174 = APPLICATION_CONTEXT ( 'configuration controlled 3d designs of mechanical parts and assemblies' ) ;
#175 = DIRECTION ( 'NONE',  ( -1.000000000000000000, -3.451266460341926600E-031, -0.0000000000000000000 ) ) ;
#176 = CARTESIAN_POINT ( 'NONE',  ( -4.724409448818897200, 0.0000000000000000000, -0.9842519685039370400 ) ) ;
#177 = VERTEX_POINT ( 'NONE', #176 ) ;
#178 = CARTESIAN_POINT ( 'NONE',  ( -3.728346456692913900, 1.074803149606299100, -2.632421532232349500E-016 ) ) ;
#179 = DIRECTION ( 'NONE',  ( 1.000000000000000000, 3.451266460341926200E-031, 0.0000000000000000000 ) ) ;
#180 = ORIENTED_EDGE ( 'NONE', *, *, #250, .T. ) ;
#181 = ORIENTED_EDGE ( 'NONE', *, *, #312, .F. ) ;
#182 = CARTESIAN_POINT ( 'NONE',  ( -4.724409448818897200, 0.4921259842519668000, -1.205321214392102600E-016 ) ) ;
#183 = DIRECTION ( 'NONE',  ( 0.0000000000000000000, 0.0000000000000000000, -1.000000000000000000 ) ) ;
#184 = AXIS2_PLACEMENT_3D ( 'NONE', #282, #179, #313 ) ;
#185 = CARTESIAN_POINT ( 'NONE',  ( -2.362204724409448600, 2.362204724409450800, -0.8031496062992125000 ) ) ;
#186 = CARTESIAN_POINT ( 'NONE',  ( -2.362204724409448600, 0.0000000000000000000, -0.8031496062992123900 ) ) ;
#187 = VERTEX_POINT ( 'NONE', #185 ) ;
#188 = APPROVAL_PERSON_ORGANIZATION ( #202, #270, #304 ) ;
#189 = CARTESIAN_POINT ( 'NONE',  ( -2.362204724409448600, 1.456692913385828200, 5.023340898254108900E-032 ) ) ;
#190 = EDGE_CURVE ( 'NONE', #27, #27, #15, .T. ) ;
#191 = APPROVAL_PERSON_ORGANIZATION ( #80, #91, #293 ) ;
#192 = PERSON_AND_ORGANIZATION_ROLE ( 'design_owner' ) ;
#193 = VERTEX_POINT ( 'NONE', #74 ) ;
#194 = DIRECTION ( 'NONE',  ( 1.000000000000000000, 3.451266460341926600E-031, 0.0000000000000000000 ) ) ;
#195 =( NAMED_UNIT ( * ) PLANE_ANGLE_UNIT ( ) SI_UNIT ( $, .RADIAN. ) );
#196 = CYLINDRICAL_SURFACE ( 'NONE', #5, 0.8031496062992125000 ) ;
#197 = AXIS2_PLACEMENT_3D ( 'NONE', #106, #175, #153 ) ;
#198 = ORIENTED_EDGE ( 'NONE', *, *, #166, .F. ) ;
#199 = ORIENTED_EDGE ( 'NONE', *, *, #204, .F. ) ;
#200 = CARTESIAN_POINT ( 'NONE',  ( -2.362204724409448600, 0.0000000000000000000, 0.8031496062992123900 ) ) ;
#201 = FACE_OUTER_BOUND ( 'NONE', #365, .T. ) ;
#202 = PERSON_AND_ORGANIZATION ( #280, #238 ) ;
#203 = APPLICATION_PROTOCOL_DEFINITION ( 'international standard', 'config_control_design', 1994, #174 ) ;
#204 = EDGE_CURVE ( 'NONE', #57, #57, #381, .T. ) ;
#205 = ADVANCED_FACE ( 'NONE', ( #212, #207 ), #273, .T. ) ;
#206 = AXIS2_PLACEMENT_3D ( 'NONE', #164, #14, #120 ) ;
#207 = FACE_BOUND ( 'NONE', #382, .T. ) ;
#208 = CARTESIAN_POINT ( 'NONE',  ( -3.968503937007874100, 1.606299212598424600, 0.8031496062992126200 ) ) ;
#209 = CIRCLE ( 'NONE', #3, 0.8031496062992125000 ) ;
#210 = PERSON_AND_ORGANIZATION ( #280, #238 ) ;
#211 = CIRCLE ( 'NONE', #121, 1.074803149606299300 ) ;
#212 = FACE_OUTER_BOUND ( 'NONE', #341, .T. ) ;
#213 = DIRECTION ( 'NONE',  ( -3.451266460341926600E-031, -1.000000000000000000, -1.026341648675403100E-048 ) ) ;
#214 = CARTESIAN_POINT ( 'NONE',  ( -2.362204724409448600, 0.0000000000000000000, -0.8031496062992123900 ) ) ;
#215 = CARTESIAN_POINT ( 'NONE',  ( -2.362204724409448600, 0.0000000000000000000, -1.074803149606299100 ) ) ;
#216 = COORDINATED_UNIVERSAL_TIME_OFFSET ( 5, 0, .BEHIND. ) ;
#217 = DIRECTION ( 'NONE',  ( 1.000000000000000000, 0.0000000000000000000, -2.449212707644940400E-016 ) ) ;
#218 = DIRECTION ( 'NONE',  ( 3.451266460341926600E-031, 1.000000000000000000, 1.026341648675403100E-048 ) ) ;
#219 = PERSON_AND_ORGANIZATION_ROLE ( 'creator' ) ;
#220 = DIRECTION ( 'NONE',  ( -1.000000000000000000, -3.451266460341926600E-031, -0.0000000000000000000 ) ) ;
#221 = CYLINDRICAL_SURFACE ( 'NONE', #259, 0.8031496062992125000 ) ;
#222 = DIRECTION ( 'NONE',  ( 0.0000000000000000000, 0.0000000000000000000, -1.000000000000000000 ) ) ;
#223 = APPROVAL_DATE_TIME ( #355, #331 ) ;
#224 = AXIS2_PLACEMENT_3D ( 'NONE', #160, #10, #47 ) ;
#225 = CYLINDRICAL_SURFACE ( 'NONE', #134, 1.074803149606299300 ) ;
#226 = CYLINDRICAL_SURFACE ( 'NONE', #224, 1.074803149606299300 ) ;
#227 = DATE_AND_TIME ( #71, #231 ) ;
#228 = EDGE_CURVE ( 'NONE', #33, #33, #230, .T. ) ;
#229 = FACE_OUTER_BOUND ( 'NONE', #241, .T. ) ;
#230 = CIRCLE ( 'NONE', #4, 1.074803149606299100 ) ;
#231 = LOCAL_TIME ( 15, 28, 49.00000000000000000, #2 ) ;
#232 = ADVANCED_FACE ( 'NONE', ( #12, #6, #28 ), #225, .T. ) ;
#233 =( LENGTH_UNIT ( ) NAMED_UNIT ( * ) SI_UNIT ( $, .METRE. ) );
#234 = FACE_OUTER_BOUND ( 'NONE', #288, .T. ) ;
#235 = CONICAL_SURFACE ( 'NONE', #173, 1.074803149606299500, 0.7853981633974528300 ) ;
#236 = FACE_OUTER_BOUND ( 'NONE', #319, .T. ) ;
#237 = AXIS2_PLACEMENT_3D ( 'NONE', #84, #26, #242 ) ;
#238 = ORGANIZATION ( 'UNSPECIFIED', 'UNSPECIFIED', '' ) ;
#239 = ORIENTED_EDGE ( 'NONE', *, *, #204, .T. ) ;
#240 = CIRCLE ( 'NONE', #316, 0.9842519685039370400 ) ;
#241 = EDGE_LOOP ( 'NONE', ( #318, #352 ) ) ;
#242 = DIRECTION ( 'NONE',  ( 0.0000000000000000000, 0.0000000000000000000, -1.000000000000000000 ) ) ;
#243 = DIRECTION ( 'NONE',  ( 0.0000000000000000000, 0.0000000000000000000, -1.000000000000000000 ) ) ;
#244 =( BOUNDED_CURVE ( )  B_SPLINE_CURVE ( 3, ( #354, #208, #103, #214 ),
 .UNSPECIFIED., .F., .F. ) 
 B_SPLINE_CURVE_WITH_KNOTS ( ( 4, 4 ),
 ( 1.570796326794896600, 4.712388980384689700 ),
 .UNSPECIFIED. ) 
 CURVE ( )  GEOMETRIC_REPRESENTATION_ITEM ( )  RATIONAL_B_SPLINE_CURVE ( ( 1.000000000000000000, 0.3333333333333333700, 0.3333333333333333700, 1.000000000000000000 ) ) 
 REPRESENTATION_ITEM ( '' )  );
#245 = PRODUCT_DEFINITION_FORMATION_WITH_SPECIFIED_SOURCE ( 'ANY', '', #305, .NOT_KNOWN. ) ;
#246 = CC_DESIGN_SECURITY_CLASSIFICATION ( #349, ( #245 ) ) ;
#247 = MANIFOLD_SOLID_BREP ( '1', #315 ) ;
#248 = CARTESIAN_POINT ( 'NONE',  ( -2.362204724409448600, 1.366141732283462800, 5.023340898254108900E-032 ) ) ;
#249 = FACE_BOUND ( 'NONE', #88, .T. ) ;
#250 = EDGE_CURVE ( 'NONE', #187, #187, #209, .T. ) ;
#251 = CALENDAR_DATE ( 2017, 27, 7 ) ;
#252 = EDGE_CURVE ( 'NONE', #359, #286, #283, .T. ) ;
#253 = FACE_BOUND ( 'NONE', #268, .T. ) ;
#254 = PLANE ( 'NONE',  #69 ) ;
#255 = PERSON_AND_ORGANIZATION ( #280, #238 ) ;
#256 = CARTESIAN_POINT ( 'NONE',  ( -2.362204724409448600, 0.0000000000000000000, -0.8031496062992123900 ) ) ;
#257 = ORIENTED_EDGE ( 'NONE', *, *, #371, .F. ) ;
#258 = CARTESIAN_POINT ( 'NONE',  ( -2.362204724409448600, 1.909448818897637300, 5.023340898254108900E-032 ) ) ;
#259 = AXIS2_PLACEMENT_3D ( 'NONE', #115, #151, #222 ) ;
#260 = DIRECTION ( 'NONE',  ( 1.000000000000000000, 0.0000000000000000000, 0.0000000000000000000 ) ) ;
#261 = ORIENTED_EDGE ( 'NONE', *, *, #228, .T. ) ;
#262 = ADVANCED_FACE ( 'NONE', ( #234, #34 ), #20, .T. ) ;
#263 = DIRECTION ( 'NONE',  ( 0.0000000000000000000, 0.0000000000000000000, -1.000000000000000000 ) ) ;
#264 = APPROVAL_DATE_TIME ( #338, #270 ) ;
#265 = CARTESIAN_POINT ( 'NONE',  ( -2.362204724409448600, 2.362204724409450800, -2.843400508445722300E-033 ) ) ;
#266 =( NAMED_UNIT ( * ) SI_UNIT ( $, .STERADIAN. ) SOLID_ANGLE_UNIT ( ) );
#267 = FACE_OUTER_BOUND ( 'NONE', #86, .T. ) ;
#268 = EDGE_LOOP ( 'NONE', ( #138 ) ) ;
#269 = DIRECTION ( 'NONE',  ( 1.000000000000000000, 3.451266460341926600E-031, 0.0000000000000000000 ) ) ;
#270 = APPROVAL ( #52, 'UNSPECIFIED' ) ;
#271 = CARTESIAN_POINT ( 'NONE',  ( -4.511811023622047200, 2.149606299212598200, 1.074803149606298600 ) ) ;
#272 = CARTESIAN_POINT ( 'NONE',  ( -1.870078740157480300, 2.362204724409450800, -1.205321214392102600E-016 ) ) ;
#273 = PLANE ( 'NONE',  #184 ) ;
#274 = ORIENTED_EDGE ( 'NONE', *, *, #250, .F. ) ;
#275 = ORIENTED_EDGE ( 'NONE', *, *, #190, .T. ) ;
#276 = FACE_OUTER_BOUND ( 'NONE', #284, .T. ) ;
#277 = LOCAL_TIME ( 15, 28, 49.00000000000000000, #216 ) ;
#278 = COORDINATED_UNIVERSAL_TIME_OFFSET ( 5, 0, .BEHIND. ) ;
#279 = CIRCLE ( 'NONE', #36, 0.9842519685039370400 ) ;
#280 = PERSON ( 'UNSPECIFIED', 'UNSPECIFIED', 'UNSPECIFIED', ('UNSPECIFIED'), ('UNSPECIFIED'), ('UNSPECIFIED') ) ;
#281 = AXIS2_PLACEMENT_3D ( 'NONE', #258, #213, #68 ) ;
#282 = CARTESIAN_POINT ( 'NONE',  ( 0.0000000000000000000, 0.4921259842519668000, -1.205321214392102600E-016 ) ) ;
#283 =( BOUNDED_CURVE ( )  B_SPLINE_CURVE ( 3, ( #289, #271, #142, #102 ),
 .UNSPECIFIED., .F., .F. ) 
 B_SPLINE_CURVE_WITH_KNOTS ( ( 4, 4 ),
 ( 1.570796326794896800, 4.712388980384689700 ),
 .UNSPECIFIED. ) 
 CURVE ( )  GEOMETRIC_REPRESENTATION_ITEM ( )  RATIONAL_B_SPLINE_CURVE ( ( 1.000000000000000000, 0.3333333333333333700, 0.3333333333333333700, 1.000000000000000000 ) ) 
 REPRESENTATION_ITEM ( '' )  );
#284 = EDGE_LOOP ( 'NONE', ( #364 ) ) ;
#285 = CONICAL_SURFACE ( 'NONE', #206, 1.074803149606298900, 0.7853981633974512800 ) ;
#286 = VERTEX_POINT ( 'NONE', #322 ) ;
#287 = FACE_BOUND ( 'NONE', #17, .T. ) ;
#288 = EDGE_LOOP ( 'NONE', ( #46 ) ) ;
#289 = CARTESIAN_POINT ( 'NONE',  ( -2.362204724409448600, 0.0000000000000000000, 1.074803149606299100 ) ) ;
#290 = DIRECTION ( 'NONE',  ( -3.451266460341926600E-031, -1.000000000000000000, -1.026341648675403100E-048 ) ) ;
#291 = ADVANCED_FACE ( 'NONE', ( #229, #7 ), #196, .F. ) ;
#292 = DATE_AND_TIME ( #159, #277 ) ;
#293 = APPROVAL_ROLE ( '' ) ;
#294 = DIRECTION ( 'NONE',  ( 3.451266460341926200E-031, 1.000000000000000000, -0.0000000000000000000 ) ) ;
#295 = APPROVAL_STATUS ( 'not_yet_approved' ) ;
#296 = CC_DESIGN_APPROVAL ( #331, ( #349 ) ) ;
#297 = FACE_OUTER_BOUND ( 'NONE', #340, .T. ) ;
#298 = ORIENTED_EDGE ( 'NONE', *, *, #166, .T. ) ;
#299 = LOCAL_TIME ( 15, 28, 49.00000000000000000, #145 ) ;
#300 = DIRECTION ( 'NONE',  ( 1.000000000000000000, 3.451266460341926600E-031, 0.0000000000000000000 ) ) ;
#301 = CIRCLE ( 'NONE', #347, 0.9842519685039370400 ) ;
#302 = CARTESIAN_POINT ( 'NONE',  ( 0.0000000000000000000, 0.0000000000000000000, 0.0000000000000000000 ) ) ;
#303 = DIRECTION ( 'NONE',  ( 0.0000000000000000000, 0.0000000000000000000, -1.000000000000000000 ) ) ;
#304 = APPROVAL_ROLE ( '' ) ;
#305 = PRODUCT ( '581246015', '581246015', '', ( #378 ) ) ;
#306 = PRODUCT_DEFINITION ( 'UNKNOWN', '', #245, #1 ) ;
#307 = ORIENTED_EDGE ( 'NONE', *, *, #252, .T. ) ;
#308 = CARTESIAN_POINT ( 'NONE',  ( -0.9055118110236221000, 0.0000000000000000000, -0.9842519685039370400 ) ) ;
#309 = ORIENTED_EDGE ( 'NONE', *, *, #386, .F. ) ;
#310 = AXIS2_PLACEMENT_3D ( 'NONE', #182, #32, #126 ) ;
#311 = CARTESIAN_POINT ( 'NONE',  ( -0.9960629921259841500, 0.0000000000000000000, 9.478001694819074300E-034 ) ) ;
#312 = EDGE_CURVE ( 'NONE', #170, #170, #211, .T. ) ;
#313 = DIRECTION ( 'NONE',  ( 0.0000000000000000000, 0.0000000000000000000, -1.000000000000000000 ) ) ;
#314 = CARTESIAN_POINT ( 'NONE',  ( -4.724409448818897200, 0.0000000000000000000, -2.843400508445722300E-033 ) ) ;
#315 = CLOSED_SHELL ( 'NONE', ( #135, #35, #205, #291, #146, #262, #171, #72, #16, #380, #232, #11, #139 ) ) ;
#316 = AXIS2_PLACEMENT_3D ( 'NONE', #302, #300, #111 ) ;
#317 = FACE_OUTER_BOUND ( 'NONE', #333, .T. ) ;
#318 = ORIENTED_EDGE ( 'NONE', *, *, #94, .T. ) ;
#319 = EDGE_LOOP ( 'NONE', ( #334 ) ) ;
#320 = AXIS2_PLACEMENT_3D ( 'NONE', #141, #75, #243 ) ;
#321 = DIMENSIONAL_EXPONENTS ( 1.000000000000000000, 0.0000000000000000000, 0.0000000000000000000, 0.0000000000000000000, 0.0000000000000000000, 0.0000000000000000000, 0.0000000000000000000 ) ;
#322 = CARTESIAN_POINT ( 'NONE',  ( -2.362204724409448600, 0.0000000000000000000, -1.074803149606299100 ) ) ;
#323 = EDGE_LOOP ( 'NONE', ( #257, #99 ) ) ;
#324 = DIRECTION ( 'NONE',  ( 1.000000000000000000, 3.451266460341926600E-031, -0.0000000000000000000 ) ) ;
#325 = ORIENTED_EDGE ( 'NONE', *, *, #312, .T. ) ;
#326 = EDGE_LOOP ( 'NONE', ( #65 ) ) ;
#327 = VERTEX_POINT ( 'NONE', #256 ) ;
#328 = CC_DESIGN_PERSON_AND_ORGANIZATION_ASSIGNMENT ( #163, #329, ( #349 ) ) ;
#329 = PERSON_AND_ORGANIZATION_ROLE ( 'classification_officer' ) ;
#330 = CARTESIAN_POINT ( 'NONE',  ( -2.362204724409448600, 0.0000000000000000000, -2.843400508445722300E-033 ) ) ;
#331 = APPROVAL ( #113, 'UNSPECIFIED' ) ;
#332 = DIRECTION ( 'NONE',  ( 1.000000000000000000, 3.451266460341926600E-031, 0.0000000000000000000 ) ) ;
#333 = EDGE_LOOP ( 'NONE', ( #261 ) ) ;
#334 = ORIENTED_EDGE ( 'NONE', *, *, #351, .F. ) ;
#335 = DATE_TIME_ROLE ( 'classification_date' ) ;
#336 = ORIENTED_EDGE ( 'NONE', *, *, #148, .T. ) ;
#337 = CC_DESIGN_DATE_AND_TIME_ASSIGNMENT ( #292, #48, ( #306 ) ) ;
#338 = DATE_AND_TIME ( #353, #101 ) ;
#339 = FACE_OUTER_BOUND ( 'NONE', #326, .T. ) ;
#340 = EDGE_LOOP ( 'NONE', ( #373 ) ) ;
#341 = EDGE_LOOP ( 'NONE', ( #133 ) ) ;
#342 = EDGE_LOOP ( 'NONE', ( #325 ) ) ;
#343 =( BOUNDED_CURVE ( )  B_SPLINE_CURVE ( 3, ( #215, #132, #110, #83 ),
 .UNSPECIFIED., .F., .F. ) 
 B_SPLINE_CURVE_WITH_KNOTS ( ( 4, 4 ),
 ( 1.570796326794896600, 4.712388980384689700 ),
 .UNSPECIFIED. ) 
 CURVE ( )  GEOMETRIC_REPRESENTATION_ITEM ( )  RATIONAL_B_SPLINE_CURVE ( ( 1.000000000000000000, 0.3333333333333333700, 0.3333333333333333700, 1.000000000000000000 ) ) 
 REPRESENTATION_ITEM ( '' )  );
#344 = VERTEX_POINT ( 'NONE', #308 ) ;
#345 = FACE_BOUND ( 'NONE', #323, .T. ) ;
#346 = DIRECTION ( 'NONE',  ( 0.0000000000000000000, -1.984260520772446300E-047, 1.000000000000000000 ) ) ;
#347 = AXIS2_PLACEMENT_3D ( 'NONE', #372, #369, #41 ) ;
#348 = FACE_OUTER_BOUND ( 'NONE', #25, .T. ) ;
#349 = SECURITY_CLASSIFICATION ( '', '', #8 ) ;
#350 = ORIENTED_EDGE ( 'NONE', *, *, #104, .T. ) ;
#351 = EDGE_CURVE ( 'NONE', #165, #165, #122, .T. ) ;
#352 = ORIENTED_EDGE ( 'NONE', *, *, #371, .T. ) ;
#353 = CALENDAR_DATE ( 2017, 27, 7 ) ;
#354 = CARTESIAN_POINT ( 'NONE',  ( -2.362204724409448600, 0.0000000000000000000, 0.8031496062992123900 ) ) ;
#355 = DATE_AND_TIME ( #40, #137 ) ;
#356 = AXIS2_PLACEMENT_3D ( 'NONE', #44, #77, #358 ) ;
#357 = CARTESIAN_POINT ( 'NONE',  ( 0.0000000000000000000, 0.0000000000000000000, -0.8031496062992125000 ) ) ;
#358 = DIRECTION ( 'NONE',  ( 0.0000000000000000000, 0.0000000000000000000, -1.000000000000000000 ) ) ;
#359 = VERTEX_POINT ( 'NONE', #130 ) ;
#360 = ORIENTED_EDGE ( 'NONE', *, *, #161, .F. ) ;
#361 = EDGE_LOOP ( 'NONE', ( #307, #78 ) ) ;
#362 = CIRCLE ( 'NONE', #197, 0.8031496062992125000 ) ;
#363 = FACE_OUTER_BOUND ( 'NONE', #136, .T. ) ;
#364 = ORIENTED_EDGE ( 'NONE', *, *, #228, .F. ) ;
#365 = EDGE_LOOP ( 'NONE', ( #239 ) ) ;
#366 = EDGE_LOOP ( 'NONE', ( #384 ) ) ;
#367 = FACE_OUTER_BOUND ( 'NONE', #55, .T. ) ;
#368 = CC_DESIGN_PERSON_AND_ORGANIZATION_ASSIGNMENT ( #255, #60, ( #245 ) ) ;
#369 = DIRECTION ( 'NONE',  ( -1.000000000000000000, -3.451266460341926600E-031, -0.0000000000000000000 ) ) ;
#370 = CONICAL_SURFACE ( 'NONE', #356, 1.074803149606299500, 0.7853981633974438400 ) ;
#371 = EDGE_CURVE ( 'NONE', #377, #327, #244, .T. ) ;
#372 = CARTESIAN_POINT ( 'NONE',  ( -3.818897637795275900, 0.0000000000000000000, 1.990380355912005700E-032 ) ) ;
#373 = ORIENTED_EDGE ( 'NONE', *, *, #104, .F. ) ;
#374 =( GEOMETRIC_REPRESENTATION_CONTEXT ( 3 ) GLOBAL_UNCERTAINTY_ASSIGNED_CONTEXT ( ( #76 ) ) GLOBAL_UNIT_ASSIGNED_CONTEXT ( ( #125, #195, #266 ) ) REPRESENTATION_CONTEXT ( 'NONE', 'WORKASPACE' ) );
#375 = EDGE_LOOP ( 'NONE', ( #181 ) ) ;
#376 = ORIENTED_EDGE ( 'NONE', *, *, #190, .F. ) ;
#377 = VERTEX_POINT ( 'NONE', #200 ) ;
#378 = MECHANICAL_CONTEXT ( 'NONE', #174, 'mechanical' ) ;
#379 = EDGE_CURVE ( 'NONE', #286, #359, #343, .T. ) ;
#380 = ADVANCED_FACE ( 'NONE', ( #123, #70 ), #152, .T. ) ;
#381 = CIRCLE ( 'NONE', #320, 0.9842519685039370400 ) ;
#382 = EDGE_LOOP ( 'NONE', ( #350 ) ) ;
#383 = CC_DESIGN_PERSON_AND_ORGANIZATION_ASSIGNMENT ( #66, #192, ( #305 ) ) ;
#384 = ORIENTED_EDGE ( 'NONE', *, *, #89, .F. ) ;
#385 = CC_DESIGN_PERSON_AND_ORGANIZATION_ASSIGNMENT ( #112, #49, ( #245 ) ) ;
#386 = EDGE_CURVE ( 'NONE', #162, #162, #147, .T. ) ;
ENDSEC;
END-ISO-10303-21;
