ISO-10303-21;
HEADER;
FILE_DESCRIPTION (( 'STEP AP203' ),
    '1' );
FILE_NAME ('581245060.STEP',
    '2017-07-27T19:02:47',
    ( '' ),
    ( '' ),
    'SwSTEP 2.0',
    'SolidWorks 2017',
    '' );
FILE_SCHEMA (( 'CONFIG_CONTROL_DESIGN' ));
ENDSEC;

DATA;
#1 = CARTESIAN_POINT ( 'NONE',  ( -1.049029629567077000E-015, 1.401263594705865700E-015, -3.149606299212598600 ) ) ;
#2 = FACE_OUTER_BOUND ( 'NONE', #122, .T. ) ;
#3 = ORIENTED_EDGE ( 'NONE', *, *, #62, .T. ) ;
#4 = ORIENTED_EDGE ( 'NONE', *, *, #303, .F. ) ;
#5 = DIRECTION ( 'NONE',  ( -1.451011086532421500E-016, -1.000000000000000000, 4.449011913191122800E-016 ) ) ;
#6 = COORDINATED_UNIVERSAL_TIME_OFFSET ( 5, 0, .BEHIND. ) ;
#7 = CYLINDRICAL_SURFACE ( 'NONE', #104, 3.437007874015748100 ) ;
#8 = CARTESIAN_POINT ( 'NONE',  ( -8.031496062992125900, -1.984599421226184300E-017, -2.574803149606300000 ) ) ;
#9 = CARTESIAN_POINT ( 'NONE',  ( -14.90551181102361700, 6.874015748031489200, -3.437007874015748100 ) ) ;
#10 = ORIENTED_EDGE ( 'NONE', *, *, #265, .F. ) ;
#11 = DIRECTION ( 'NONE',  ( -1.000000000000000000, -1.451011086532421000E-016, -3.330669073875469600E-016 ) ) ;
#12 = PERSON_AND_ORGANIZATION_ROLE ( 'creator' ) ;
#13 = PRODUCT_DEFINITION_FORMATION_WITH_SPECIFIED_SOURCE ( 'ANY', '', #334, .NOT_KNOWN. ) ;
#14 = CARTESIAN_POINT ( 'NONE',  ( -3.937007874015748100, -5.712642072962286200E-016, -1.311287036958845800E-015 ) ) ;
#15 = CYLINDRICAL_SURFACE ( 'NONE', #32, 3.149606299212598600 ) ;
#16 = EDGE_LOOP ( 'NONE', ( #302 ) ) ;
#17 = DATE_TIME_ROLE ( 'classification_date' ) ;
#18 = APPROVAL_STATUS ( 'not_yet_approved' ) ;
#19 = FACE_OUTER_BOUND ( 'NONE', #202, .T. ) ;
#20 = EDGE_LOOP ( 'NONE', ( #239 ) ) ;
#21 = FACE_OUTER_BOUND ( 'NONE', #63, .T. ) ;
#22 = CARTESIAN_POINT ( 'NONE',  ( -8.031496062992125900, 3.637499148384682200E-016, -3.437007874015747700 ) ) ;
#23 = APPROVAL_PERSON_ORGANIZATION ( #319, #180, #270 ) ;
#24 = ORIENTED_EDGE ( 'NONE', *, *, #145, .T. ) ;
#25 = FACE_OUTER_BOUND ( 'NONE', #88, .T. ) ;
#26 = CARTESIAN_POINT ( 'NONE',  ( 0.0000000000000000000, 1.574803149606299300, -1.086334585958405900E-015 ) ) ;
#27 = CYLINDRICAL_SURFACE ( 'NONE', #78, 3.149606299212598600 ) ;
#28 = DATE_AND_TIME ( #332, #108 ) ;
#29 = APPROVAL_STATUS ( 'not_yet_approved' ) ;
#30 =( LENGTH_UNIT ( ) NAMED_UNIT ( * ) SI_UNIT ( $, .METRE. ) );
#31 = ORIENTED_EDGE ( 'NONE', *, *, #35, .T. ) ;
#32 = AXIS2_PLACEMENT_3D ( 'NONE', #247, #116, #248 ) ;
#33 = ORIENTED_EDGE ( 'NONE', *, *, #228, .F. ) ;
#34 =( BOUNDED_CURVE ( )  B_SPLINE_CURVE ( 3, ( #296, #109, #271, #233 ),
 .UNSPECIFIED., .F., .T. ) 
 B_SPLINE_CURVE_WITH_KNOTS ( ( 4, 4 ),
 ( 1.570796326794896100, 4.712388980384688800 ),
 .UNSPECIFIED. ) 
 CURVE ( )  GEOMETRIC_REPRESENTATION_ITEM ( )  RATIONAL_B_SPLINE_CURVE ( ( 1.000000000000000000, 0.3333333333333335400, 0.3333333333333335400, 1.000000000000000000 ) ) 
 REPRESENTATION_ITEM ( '' )  );
#35 = EDGE_CURVE ( 'NONE', #312, #312, #127, .T. ) ;
#36 = DIRECTION ( 'NONE',  ( 0.0000000000000000000, 4.449011913191123700E-016, -1.000000000000000000 ) ) ;
#37 = APPROVAL_PERSON_ORGANIZATION ( #285, #192, #323 ) ;
#38 = ORIENTED_EDGE ( 'NONE', *, *, #228, .T. ) ;
#39 = CARTESIAN_POINT ( 'NONE',  ( -4.224409448818897200, 3.437007874015747700, -3.777936224511060800E-015 ) ) ;
#40 = CARTESIAN_POINT ( 'NONE',  ( -4.224409448818897200, -6.129664944288534800E-016, -1.407010990656841300E-015 ) ) ;
#41 = VERTEX_POINT ( 'NONE', #246 ) ;
#42 = CIRCLE ( 'NONE', #71, 3.149606299212598600 ) ;
#43 = EDGE_LOOP ( 'NONE', ( #210 ) ) ;
#44 = AXIS2_PLACEMENT_3D ( 'NONE', #338, #114, #207 ) ;
#45 = COORDINATED_UNIVERSAL_TIME_OFFSET ( 5, 0, .BEHIND. ) ;
#46 = FACE_OUTER_BOUND ( 'NONE', #140, .T. ) ;
#47 = SECURITY_CLASSIFICATION ( '', '', #158 ) ;
#48 = ADVANCED_FACE ( 'NONE', ( #260, #366, #46 ), #205, .T. ) ;
#49 = AXIS2_PLACEMENT_3D ( 'NONE', #90, #181, #191 ) ;
#50 = EDGE_CURVE ( 'NONE', #113, #113, #55, .T. ) ;
#51 = ORGANIZATION ( 'UNSPECIFIED', 'UNSPECIFIED', '' ) ;
#52 = EDGE_LOOP ( 'NONE', ( #3 ) ) ;
#53 = DIRECTION ( 'NONE',  ( 1.451011086532421500E-016, 1.000000000000000000, -4.449011913191122800E-016 ) ) ;
#54 =( BOUNDED_CURVE ( )  B_SPLINE_CURVE ( 3, ( #197, #72, #187, #350 ),
 .UNSPECIFIED., .F., .T. ) 
 B_SPLINE_CURVE_WITH_KNOTS ( ( 4, 4 ),
 ( 1.570796326794897000, 4.712388980384689700 ),
 .UNSPECIFIED. ) 
 CURVE ( )  GEOMETRIC_REPRESENTATION_ITEM ( )  RATIONAL_B_SPLINE_CURVE ( ( 1.000000000000000000, 0.3333333333333335400, 0.3333333333333335400, 1.000000000000000000 ) ) 
 REPRESENTATION_ITEM ( '' )  );
#55 = CIRCLE ( 'NONE', #91, 3.149606299212598600 ) ;
#56 = CARTESIAN_POINT ( 'NONE',  ( -8.031496062992125900, -2.694507880607082200E-015, 3.437007874015747700 ) ) ;
#57 = DIRECTION ( 'NONE',  ( -3.330669073875469600E-016, 4.449011913191121800E-016, -1.000000000000000000 ) ) ;
#58 = APPLICATION_PROTOCOL_DEFINITION ( 'international standard', 'config_control_design', 1994, #123 ) ;
#59 = AXIS2_PLACEMENT_3D ( 'NONE', #97, #284, #329 ) ;
#60 = VERTEX_POINT ( 'NONE', #385 ) ;
#61 = FACE_OUTER_BOUND ( 'NONE', #307, .T. ) ;
#62 = EDGE_CURVE ( 'NONE', #179, #179, #135, .T. ) ;
#63 = EDGE_LOOP ( 'NONE', ( #177 ) ) ;
#64 = DIMENSIONAL_EXPONENTS ( 1.000000000000000000, 0.0000000000000000000, 0.0000000000000000000, 0.0000000000000000000, 0.0000000000000000000, 0.0000000000000000000, 0.0000000000000000000 ) ;
#65 = VERTEX_POINT ( 'NONE', #279 ) ;
#66 = DIRECTION ( 'NONE',  ( 1.000000000000000000, 1.451011086532421000E-016, 3.330669073875469600E-016 ) ) ;
#67 = CIRCLE ( 'NONE', #49, 3.149606299212598600 ) ;
#68 = PERSON_AND_ORGANIZATION ( #226, #51 ) ;
#69 = FACE_OUTER_BOUND ( 'NONE', #293, .T. ) ;
#70 = DIRECTION ( 'NONE',  ( 1.000000000000000000, 1.451011086532421000E-016, 3.330669073875469600E-016 ) ) ;
#71 = AXIS2_PLACEMENT_3D ( 'NONE', #137, #53, #167 ) ;
#72 = CARTESIAN_POINT ( 'NONE',  ( -2.881889763779529500, 5.149606299212594600, -2.574803149606300400 ) ) ;
#73 = EDGE_CURVE ( 'NONE', #384, #384, #195, .T. ) ;
#74 = DATE_TIME_ROLE ( 'creation_date' ) ;
#75 = FACE_OUTER_BOUND ( 'NONE', #20, .T. ) ;
#76 = DIRECTION ( 'NONE',  ( -4.243971806671086700E-016, 4.243971806671086700E-016, -1.000000000000000000 ) ) ;
#77 = ORIENTED_EDGE ( 'NONE', *, *, #304, .T. ) ;
#78 = AXIS2_PLACEMENT_3D ( 'NONE', #305, #124, #322 ) ;
#79 = DIRECTION ( 'NONE',  ( -3.330669073875469100E-016, 4.449011913191123700E-016, -1.000000000000000000 ) ) ;
#80 = EDGE_CURVE ( 'NONE', #110, #370, #34, .T. ) ;
#81 = ADVANCED_FACE ( 'NONE', ( #376, #386 ), #320, .T. ) ;
#82 = APPROVAL_ROLE ( '' ) ;
#83 = LOCAL_TIME ( 15, 2, 47.00000000000000000, #6 ) ;
#84 = CIRCLE ( 'NONE', #256, 2.574803149606300000 ) ;
#85 = CARTESIAN_POINT ( 'NONE',  ( 0.0000000000000000000, 0.0000000000000000000, 0.0000000000000000000 ) ) ;
#86 = PLANE ( 'NONE',  #59 ) ;
#87 = CC_DESIGN_DATE_AND_TIME_ASSIGNMENT ( #176, #17, ( #47 ) ) ;
#88 = EDGE_LOOP ( 'NONE', ( #340 ) ) ;
#89 = APPROVAL_DATE_TIME ( #290, #180 ) ;
#90 = CARTESIAN_POINT ( 'NONE',  ( -8.031496062992125900, 4.251968503937008300, -4.566731408248963600E-015 ) ) ;
#91 = AXIS2_PLACEMENT_3D ( 'NONE', #365, #292, #36 ) ;
#92 = CARTESIAN_POINT ( 'NONE',  ( -16.06299212598425200, -2.330757965768612400E-015, -5.350051110792091300E-015 ) ) ;
#93 = CARTESIAN_POINT ( 'NONE',  ( -12.12598425196850400, -1.759493758472383500E-015, -4.038764073833245800E-015 ) ) ;
#94 = ADVANCED_FACE ( 'NONE', ( #287, #69 ), #7, .T. ) ;
#95 = ORIENTED_EDGE ( 'NONE', *, *, #362, .F. ) ;
#96 = CARTESIAN_POINT ( 'NONE',  ( -8.031496062992125900, 8.188976377952757300, -6.318310901631297100E-015 ) ) ;
#97 = CARTESIAN_POINT ( 'NONE',  ( -6.456692913385826800, 8.188976377952757300, -6.179498875453231900E-015 ) ) ;
#98 = CC_DESIGN_PERSON_AND_ORGANIZATION_ASSIGNMENT ( #339, #229, ( #334 ) ) ;
#99 = CYLINDRICAL_SURFACE ( 'NONE', #128, 2.574803149606300000 ) ;
#100 = EDGE_LOOP ( 'NONE', ( #347, #345 ) ) ;
#101 = FACE_BOUND ( 'NONE', #201, .T. ) ;
#102 = COORDINATED_UNIVERSAL_TIME_OFFSET ( 5, 0, .BEHIND. ) ;
#103 = ORIENTED_EDGE ( 'NONE', *, *, #295, .F. ) ;
#104 = AXIS2_PLACEMENT_3D ( 'NONE', #216, #262, #160 ) ;
#105 = CIRCLE ( 'NONE', #213, 3.149606299212598600 ) ;
#106 = CARTESIAN_POINT ( 'NONE',  ( -8.575817221710857400E-016, 1.145532988672045100E-015, -2.574803149606300000 ) ) ;
#107 = AXIS2_PLACEMENT_3D ( 'NONE', #343, #70, #373 ) ;
#108 = LOCAL_TIME ( 15, 2, 47.00000000000000000, #369 ) ;
#109 = CARTESIAN_POINT ( 'NONE',  ( -13.18110236220472200, 5.149606299212594600, 2.574803149606295100 ) ) ;
#110 = VERTEX_POINT ( 'NONE', #278 ) ;
#111 = APPROVAL ( #316, 'UNSPECIFIED' ) ;
#112 = AXIS2_PLACEMENT_3D ( 'NONE', #154, #203, #254 ) ;
#113 = VERTEX_POINT ( 'NONE', #321 ) ;
#114 = DIRECTION ( 'NONE',  ( 0.0000000000000000000, 0.0000000000000000000, 1.000000000000000000 ) ) ;
#115 = EDGE_LOOP ( 'NONE', ( #245 ) ) ;
#116 = DIRECTION ( 'NONE',  ( 1.000000000000000000, 1.451011086532421000E-016, 3.330669073875469600E-016 ) ) ;
#117 = CARTESIAN_POINT ( 'NONE',  ( -4.224409448818897200, -6.129664944288534800E-016, -1.407010990656841300E-015 ) ) ;
#118 = CALENDAR_DATE ( 2017, 27, 7 ) ;
#119 = ORIENTED_EDGE ( 'NONE', *, *, #62, .F. ) ;
#120 = CARTESIAN_POINT ( 'NONE',  ( -8.031496062992127700, 8.188976377952757300, -2.574803149606306200 ) ) ;
#121 = VERTEX_POINT ( 'NONE', #274 ) ;
#122 = EDGE_LOOP ( 'NONE', ( #281 ) ) ;
#123 = APPLICATION_CONTEXT ( 'configuration controlled 3d designs of mechanical parts and assemblies' ) ;
#124 = DIRECTION ( 'NONE',  ( -1.451011086532421500E-016, -1.000000000000000000, 4.449011913191122800E-016 ) ) ;
#125 = CARTESIAN_POINT ( 'NONE',  ( -8.031496062992127700, 8.188976377952757300, -3.149606299212605300 ) ) ;
#126 = DATE_AND_TIME ( #223, #83 ) ;
#127 = CIRCLE ( 'NONE', #166, 3.437007874015749900 ) ;
#128 = AXIS2_PLACEMENT_3D ( 'NONE', #276, #156, #227 ) ;
#129 = EDGE_LOOP ( 'NONE', ( #234 ) ) ;
#130 = AXIS2_PLACEMENT_3D ( 'NONE', #117, #199, #261 ) ;
#131 = ORIENTED_EDGE ( 'NONE', *, *, #304, .F. ) ;
#132 = PRODUCT_RELATED_PRODUCT_CATEGORY ( 'detail', '', ( #334 ) ) ;
#133 = ADVANCED_FACE ( 'NONE', ( #309, #144 ), #372, .T. ) ;
#134 = CIRCLE ( 'NONE', #112, 3.437007874015747300 ) ;
#135 = CIRCLE ( 'NONE', #136, 2.574803149606300000 ) ;
#136 = AXIS2_PLACEMENT_3D ( 'NONE', #96, #193, #76 ) ;
#137 = CARTESIAN_POINT ( 'NONE',  ( -8.031496062992125900, 8.188976377952757300, -6.318310901631297100E-015 ) ) ;
#138 = CC_DESIGN_DATE_AND_TIME_ASSIGNMENT ( #28, #74, ( #346 ) ) ;
#139 = EDGE_CURVE ( 'NONE', #266, #266, #84, .T. ) ;
#140 = EDGE_LOOP ( 'NONE', ( #269 ) ) ;
#141 =( BOUNDED_CURVE ( )  B_SPLINE_CURVE ( 3, ( #22, #209, #142, #56 ),
 .UNSPECIFIED., .F., .F. ) 
 B_SPLINE_CURVE_WITH_KNOTS ( ( 4, 4 ),
 ( 1.570796326794897000, 4.712388980384689700 ),
 .UNSPECIFIED. ) 
 CURVE ( )  GEOMETRIC_REPRESENTATION_ITEM ( )  RATIONAL_B_SPLINE_CURVE ( ( 1.000000000000000000, 0.3333333333333335400, 0.3333333333333335400, 1.000000000000000000 ) ) 
 REPRESENTATION_ITEM ( '' )  );
#142 = CARTESIAN_POINT ( 'NONE',  ( -1.157480314960635900, 6.874015748031491800, 3.437007874015742400 ) ) ;
#143 = EDGE_LOOP ( 'NONE', ( #103 ) ) ;
#144 = FACE_BOUND ( 'NONE', #129, .T. ) ;
#145 = EDGE_CURVE ( 'NONE', #370, #110, #54, .T. ) ;
#146 = EDGE_LOOP ( 'NONE', ( #275 ) ) ;
#147 = MANIFOLD_SOLID_BREP ( '1', #182 ) ;
#148 = DIRECTION ( 'NONE',  ( -1.000000000000000000, -1.451011086532423900E-016, 3.330669073875469100E-016 ) ) ;
#149 = CC_DESIGN_APPROVAL ( #180, ( #346 ) ) ;
#150 = FACE_BOUND ( 'NONE', #100, .T. ) ;
#151 = APPLICATION_CONTEXT ( 'configuration controlled 3d designs of mechanical parts and assemblies' ) ;
#152 = EDGE_LOOP ( 'NONE', ( #354 ) ) ;
#153 = CONICAL_SURFACE ( 'NONE', #107, 3.437007874015750400, 0.7853981633974501700 ) ;
#154 = CARTESIAN_POINT ( 'NONE',  ( -8.031496062992125900, 3.964566929133858800, -4.438866105232055500E-015 ) ) ;
#155 = CIRCLE ( 'NONE', #277, 3.149606299212598600 ) ;
#156 = DIRECTION ( 'NONE',  ( 1.000000000000000000, 1.451011086532421000E-016, 3.330669073875469600E-016 ) ) ;
#157 =( CONVERSION_BASED_UNIT ( 'INCH', #169 ) LENGTH_UNIT ( ) NAMED_UNIT ( #64 ) );
#158 = SECURITY_CLASSIFICATION_LEVEL ( 'unclassified' ) ;
#159 = EDGE_LOOP ( 'NONE', ( #165 ) ) ;
#160 = DIRECTION ( 'NONE',  ( -3.179332831114423100E-016, 4.768999246671634400E-016, -1.000000000000000000 ) ) ;
#161 = CC_DESIGN_SECURITY_CLASSIFICATION ( #47, ( #13 ) ) ;
#162 = ORIENTED_EDGE ( 'NONE', *, *, #303, .T. ) ;
#163 = ORIENTED_EDGE ( 'NONE', *, *, #35, .F. ) ;
#164 = FACE_OUTER_BOUND ( 'NONE', #170, .T. ) ;
#165 = ORIENTED_EDGE ( 'NONE', *, *, #50, .T. ) ;
#166 = AXIS2_PLACEMENT_3D ( 'NONE', #377, #11, #298 ) ;
#167 = DIRECTION ( 'NONE',  ( -3.469446951953614200E-016, 3.469446951953614200E-016, -1.000000000000000000 ) ) ;
#168 =( NAMED_UNIT ( * ) SI_UNIT ( $, .STERADIAN. ) SOLID_ANGLE_UNIT ( ) );
#169 = LENGTH_MEASURE_WITH_UNIT ( LENGTH_MEASURE( 0.02539999999999999900 ), #30 );
#170 = EDGE_LOOP ( 'NONE', ( #119 ) ) ;
#171 =( BOUNDED_CURVE ( )  B_SPLINE_CURVE ( 3, ( #335, #363, #9, #331 ),
 .UNSPECIFIED., .F., .F. ) 
 B_SPLINE_CURVE_WITH_KNOTS ( ( 4, 4 ),
 ( 1.570796326794896800, 4.712388980384688800 ),
 .UNSPECIFIED. ) 
 CURVE ( )  GEOMETRIC_REPRESENTATION_ITEM ( )  RATIONAL_B_SPLINE_CURVE ( ( 1.000000000000000000, 0.3333333333333337000, 0.3333333333333337000, 1.000000000000000000 ) ) 
 REPRESENTATION_ITEM ( '' )  );
#172 = PERSON_AND_ORGANIZATION ( #226, #51 ) ;
#173 = CC_DESIGN_PERSON_AND_ORGANIZATION_ASSIGNMENT ( #194, #198, ( #13 ) ) ;
#174 = PERSON_AND_ORGANIZATION ( #226, #51 ) ;
#175 = AXIS2_PLACEMENT_3D ( 'NONE', #26, #324, #241 ) ;
#176 = DATE_AND_TIME ( #273, #364 ) ;
#177 = ORIENTED_EDGE ( 'NONE', *, *, #295, .T. ) ;
#178 = DIRECTION ( 'NONE',  ( 1.000000000000000000, 1.451011086532421000E-016, 3.330669073875469600E-016 ) ) ;
#179 = VERTEX_POINT ( 'NONE', #120 ) ;
#180 = APPROVAL ( #29, 'UNSPECIFIED' ) ;
#181 = DIRECTION ( 'NONE',  ( 1.451011086532421500E-016, 1.000000000000000000, -4.449011913191122800E-016 ) ) ;
#182 = CLOSED_SHELL ( 'NONE', ( #325, #133, #212, #337, #243, #358, #383, #294, #81, #251, #48, #348, #94 ) ) ;
#183 = VERTEX_POINT ( 'NONE', #306 ) ;
#184 = AXIS2_PLACEMENT_3D ( 'NONE', #255, #148, #318 ) ;
#185 = LOCAL_TIME ( 15, 2, 47.00000000000000000, #375 ) ;
#186 = EDGE_LOOP ( 'NONE', ( #131 ) ) ;
#187 = CARTESIAN_POINT ( 'NONE',  ( -2.881889763779531300, 5.149606299212595500, 2.574803149606295100 ) ) ;
#188 = VERTEX_POINT ( 'NONE', #267 ) ;
#189 = CIRCLE ( 'NONE', #368, 3.149606299212598600 ) ;
#190 = ORIENTED_EDGE ( 'NONE', *, *, #50, .F. ) ;
#191 = DIRECTION ( 'NONE',  ( -3.469446951953614200E-016, 5.204170427930421300E-016, -1.000000000000000000 ) ) ;
#192 = APPROVAL ( #18, 'UNSPECIFIED' ) ;
#193 = DIRECTION ( 'NONE',  ( -1.451011086532421500E-016, -1.000000000000000000, 4.449011913191122800E-016 ) ) ;
#194 = PERSON_AND_ORGANIZATION ( #226, #51 ) ;
#195 = CIRCLE ( 'NONE', #288, 3.437007874015748100 ) ;
#196 = AXIS2_PLACEMENT_3D ( 'NONE', #289, #5, #367 ) ;
#197 = CARTESIAN_POINT ( 'NONE',  ( -8.031496062992125900, -1.984599421226184300E-017, -2.574803149606300000 ) ) ;
#198 = PERSON_AND_ORGANIZATION_ROLE ( 'creator' ) ;
#199 = DIRECTION ( 'NONE',  ( -1.000000000000000000, -1.451011086532421000E-016, -4.125502281654075500E-016 ) ) ;
#200 = CONICAL_SURFACE ( 'NONE', #378, 3.437007874015747300, 0.7853981633974463900 ) ;
#201 = EDGE_LOOP ( 'NONE', ( #10 ) ) ;
#202 = EDGE_LOOP ( 'NONE', ( #77 ) ) ;
#203 = DIRECTION ( 'NONE',  ( 1.451011086532421500E-016, 1.000000000000000000, -4.449011913191122800E-016 ) ) ;
#204 = CARTESIAN_POINT ( 'NONE',  ( -8.031496062992125900, -1.165378982884306600E-015, -2.675025555396046100E-015 ) ) ;
#205 = CYLINDRICAL_SURFACE ( 'NONE', #336, 3.437007874015748100 ) ;
#206 = AXIS2_PLACEMENT_3D ( 'NONE', #92, #299, #283 ) ;
#207 = DIRECTION ( 'NONE',  ( 1.000000000000000000, 0.0000000000000000000, 0.0000000000000000000 ) ) ;
#208 = FACE_BOUND ( 'NONE', #52, .T. ) ;
#209 = CARTESIAN_POINT ( 'NONE',  ( -1.157480314960633400, 6.874015748031490100, -3.437007874015748600 ) ) ;
#210 = ORIENTED_EDGE ( 'NONE', *, *, #265, .T. ) ;
#211 = DIRECTION ( 'NONE',  ( 1.000000000000000000, 1.451011086532421000E-016, 3.330669073875469600E-016 ) ) ;
#212 = ADVANCED_FACE ( 'NONE', ( #232, #218 ), #250, .T. ) ;
#213 = AXIS2_PLACEMENT_3D ( 'NONE', #85, #214, #79 ) ;
#214 = DIRECTION ( 'NONE',  ( 1.000000000000000000, 1.451011086532421000E-016, 3.330669073875469600E-016 ) ) ;
#215 = EDGE_CURVE ( 'NONE', #359, #359, #155, .T. ) ;
#216 = CARTESIAN_POINT ( 'NONE',  ( -8.031496062992125900, 1.982283464566929400, -3.556945830314051300E-015 ) ) ;
#217 = EDGE_LOOP ( 'NONE', ( #4 ) ) ;
#218 = FACE_BOUND ( 'NONE', #152, .T. ) ;
#219 = DIRECTION ( 'NONE',  ( -1.000000000000000000, -1.451011086532421000E-016, -3.330669073875469600E-016 ) ) ;
#220 = DIRECTION ( 'NONE',  ( -3.179332831114424100E-016, 4.768999246671635400E-016, -1.000000000000000000 ) ) ;
#221 = PERSON_AND_ORGANIZATION_ROLE ( 'classification_officer' ) ;
#222 = CARTESIAN_POINT ( 'NONE',  ( -1.968503937007873600, -2.856321036481141600E-016, -6.556435184794230700E-016 ) ) ;
#223 = CALENDAR_DATE ( 2017, 27, 7 ) ;
#224 = EDGE_LOOP ( 'NONE', ( #163 ) ) ;
#225 = CC_DESIGN_PERSON_AND_ORGANIZATION_ASSIGNMENT ( #68, #221, ( #47 ) ) ;
#226 = PERSON ( 'UNSPECIFIED', 'UNSPECIFIED', 'UNSPECIFIED', ('UNSPECIFIED'), ('UNSPECIFIED'), ('UNSPECIFIED') ) ;
#227 = DIRECTION ( 'NONE',  ( -3.315602973961786600E-016, 4.449011913191121800E-016, -1.000000000000000000 ) ) ;
#228 = EDGE_CURVE ( 'NONE', #183, #65, #141, .T. ) ;
#229 = PERSON_AND_ORGANIZATION_ROLE ( 'design_owner' ) ;
#230 = DIRECTION ( 'NONE',  ( -1.451011086532421500E-016, -1.000000000000000000, 4.449011913191122800E-016 ) ) ;
#231 = CALENDAR_DATE ( 2017, 27, 7 ) ;
#232 = FACE_OUTER_BOUND ( 'NONE', #115, .T. ) ;
#233 = CARTESIAN_POINT ( 'NONE',  ( -8.031496062992125900, -1.984599421226184300E-017, -2.574803149606300000 ) ) ;
#234 = ORIENTED_EDGE ( 'NONE', *, *, #314, .T. ) ;
#235 = APPROVAL_DATE_TIME ( #126, #111 ) ;
#236 = EDGE_LOOP ( 'NONE', ( #31 ) ) ;
#237 = CC_DESIGN_APPROVAL ( #111, ( #13 ) ) ;
#238 = FACE_BOUND ( 'NONE', #143, .T. ) ;
#239 = ORIENTED_EDGE ( 'NONE', *, *, #139, .F. ) ;
#240 = FACE_OUTER_BOUND ( 'NONE', #43, .T. ) ;
#241 = DIRECTION ( 'NONE',  ( -3.330669073875469600E-016, 4.449011913191122800E-016, -1.000000000000000000 ) ) ;
#242 = CARTESIAN_POINT ( 'NONE',  ( -3.937007874015749500, 8.299993874096369600E-016, -3.149606299212599500 ) ) ;
#243 = ADVANCED_FACE ( 'NONE', ( #333, #240 ), #15, .T. ) ;
#244 = CARTESIAN_POINT ( 'NONE',  ( -8.031496062992125900, 3.964566929133858800, -4.438866105232055500E-015 ) ) ;
#245 = ORIENTED_EDGE ( 'NONE', *, *, #357, .T. ) ;
#246 = CARTESIAN_POINT ( 'NONE',  ( -8.031496062992127700, 4.251968503937009200, -3.149606299212603000 ) ) ;
#247 = CARTESIAN_POINT ( 'NONE',  ( -14.09448818897637800, -2.045125862120498500E-015, -4.694407592312668900E-015 ) ) ;
#248 = DIRECTION ( 'NONE',  ( 0.0000000000000000000, 4.449011913191123700E-016, -1.000000000000000000 ) ) ;
#249 = CC_DESIGN_PERSON_AND_ORGANIZATION_ASSIGNMENT ( #327, #326, ( #13 ) ) ;
#250 = PLANE ( 'NONE',  #175 ) ;
#251 = ADVANCED_FACE ( 'NONE', ( #253, #21 ), #27, .T. ) ;
#252 = CYLINDRICAL_SURFACE ( 'NONE', #196, 2.574803149606300000 ) ;
#253 = FACE_OUTER_BOUND ( 'NONE', #186, .T. ) ;
#254 = DIRECTION ( 'NONE',  ( 1.000000000000000000, 1.589666415557212100E-016, 8.814563662306693800E-017 ) ) ;
#255 = CARTESIAN_POINT ( 'NONE',  ( -16.06299212598425200, 1.574803149606297100, -6.436385696750497800E-015 ) ) ;
#256 = AXIS2_PLACEMENT_3D ( 'NONE', #317, #272, #57 ) ;
#257 = ORIENTED_EDGE ( 'NONE', *, *, #362, .T. ) ;
#258 = MECHANICAL_CONTEXT ( 'NONE', #123, 'mechanical' ) ;
#259 = CYLINDRICAL_SURFACE ( 'NONE', #351, 3.149606299212598600 ) ;
#260 = FACE_BOUND ( 'NONE', #282, .T. ) ;
#261 = DIRECTION ( 'NONE',  ( 3.179332831114423100E-016, -4.449011913191122800E-016, 1.000000000000000000 ) ) ;
#262 = DIRECTION ( 'NONE',  ( -1.451011086532421500E-016, -1.000000000000000000, 4.449011913191122800E-016 ) ) ;
#263 = CIRCLE ( 'NONE', #206, 2.574803149606300000 ) ;
#264 = EDGE_LOOP ( 'NONE', ( #162 ) ) ;
#265 = EDGE_CURVE ( 'NONE', #60, #60, #189, .T. ) ;
#266 = VERTEX_POINT ( 'NONE', #106 ) ;
#267 = CARTESIAN_POINT ( 'NONE',  ( -16.06299212598425200, -1.185224977096567100E-015, -2.574803149606305300 ) ) ;
#268 = CC_DESIGN_PERSON_AND_ORGANIZATION_ASSIGNMENT ( #172, #12, ( #346 ) ) ;
#269 = ORIENTED_EDGE ( 'NONE', *, *, #73, .F. ) ;
#270 = APPROVAL_ROLE ( '' ) ;
#271 = CARTESIAN_POINT ( 'NONE',  ( -13.18110236220472400, 5.149606299212595500, -2.574803149606300400 ) ) ;
#272 = DIRECTION ( 'NONE',  ( -1.000000000000000000, -1.451011086532421000E-016, -3.330669073875469600E-016 ) ) ;
#273 = CALENDAR_DATE ( 2017, 27, 7 ) ;
#274 = CARTESIAN_POINT ( 'NONE',  ( -4.594488188976379600, 3.964566929133859200, -4.135908858098443700E-015 ) ) ;
#275 = ORIENTED_EDGE ( 'NONE', *, *, #215, .F. ) ;
#276 = CARTESIAN_POINT ( 'NONE',  ( 0.03937007874015751400, 5.712642072962305400E-018, 1.311287036958847500E-017 ) ) ;
#277 = AXIS2_PLACEMENT_3D ( 'NONE', #14, #211, #341 ) ;
#278 = CARTESIAN_POINT ( 'NONE',  ( -8.031496062992125900, -2.153250749776357400E-015, 2.574803149606300000 ) ) ;
#279 = CARTESIAN_POINT ( 'NONE',  ( -8.031496062992125900, -2.694507880607082200E-015, 3.437007874015747700 ) ) ;
#280 = VERTEX_POINT ( 'NONE', #1 ) ;
#281 = ORIENTED_EDGE ( 'NONE', *, *, #357, .F. ) ;
#282 = EDGE_LOOP ( 'NONE', ( #257, #38 ) ) ;
#283 = DIRECTION ( 'NONE',  ( 0.0000000000000000000, 4.449011913191121800E-016, -1.000000000000000000 ) ) ;
#284 = DIRECTION ( 'NONE',  ( 1.451011086532424400E-016, 1.000000000000000000, 4.449011913191122800E-016 ) ) ;
#285 = PERSON_AND_ORGANIZATION ( #226, #51 ) ;
#286 = PRODUCT_DEFINITION_SHAPE ( 'NONE', 'NONE',  #346 ) ;
#287 = FACE_OUTER_BOUND ( 'NONE', #217, .T. ) ;
#288 = AXIS2_PLACEMENT_3D ( 'NONE', #40, #66, #300 ) ;
#289 = CARTESIAN_POINT ( 'NONE',  ( -8.031496062992125900, -1.165378982884306600E-015, -2.675025555396046100E-015 ) ) ;
#290 = DATE_AND_TIME ( #231, #308 ) ;
#291 = FACE_OUTER_BOUND ( 'NONE', #236, .T. ) ;
#292 = DIRECTION ( 'NONE',  ( -1.000000000000000000, -1.451011086532421000E-016, -3.330669073875469600E-016 ) ) ;
#293 = EDGE_LOOP ( 'NONE', ( #95, #33 ) ) ;
#294 = ADVANCED_FACE ( 'NONE', ( #101, #291 ), #153, .T. ) ;
#295 = EDGE_CURVE ( 'NONE', #41, #41, #67, .T. ) ;
#296 = CARTESIAN_POINT ( 'NONE',  ( -8.031496062992125900, -2.153250749776357400E-015, 2.574803149606300000 ) ) ;
#297 = VERTEX_POINT ( 'NONE', #125 ) ;
#298 = DIRECTION ( 'NONE',  ( 0.0000000000000000000, 1.000000000000000000, -6.898224620835872300E-016 ) ) ;
#299 = DIRECTION ( 'NONE',  ( 1.000000000000000000, 1.451011086532421000E-016, 3.330669073875469600E-016 ) ) ;
#300 = DIRECTION ( 'NONE',  ( 1.589666415557211600E-016, 1.000000000000000000, -6.898224620835873300E-016 ) ) ;
#301 = FACE_OUTER_BOUND ( 'NONE', #264, .T. ) ;
#302 = ORIENTED_EDGE ( 'NONE', *, *, #314, .F. ) ;
#303 = EDGE_CURVE ( 'NONE', #121, #121, #134, .T. ) ;
#304 = EDGE_CURVE ( 'NONE', #297, #297, #42, .T. ) ;
#305 = CARTESIAN_POINT ( 'NONE',  ( -8.031496062992125900, 6.220472440944882400, -5.442521154940131500E-015 ) ) ;
#306 = CARTESIAN_POINT ( 'NONE',  ( -8.031496062992125900, 3.637499148384682200E-016, -3.437007874015747700 ) ) ;
#307 = EDGE_LOOP ( 'NONE', ( #24, #361 ) ) ;
#308 = LOCAL_TIME ( 15, 2, 47.00000000000000000, #102 ) ;
#309 = FACE_OUTER_BOUND ( 'NONE', #159, .T. ) ;
#310 = DIRECTION ( 'NONE',  ( 1.000000000000000000, 1.451011086532421000E-016, 3.330669073875469600E-016 ) ) ;
#311 = ADVANCED_BREP_SHAPE_REPRESENTATION ( '581245060', ( #147, #44 ), #342 ) ;
#312 = VERTEX_POINT ( 'NONE', #374 ) ;
#313 = APPROVAL_DATE_TIME ( #353, #192 ) ;
#314 = EDGE_CURVE ( 'NONE', #188, #188, #263, .T. ) ;
#315 = EDGE_LOOP ( 'NONE', ( #190 ) ) ;
#316 = APPROVAL_STATUS ( 'not_yet_approved' ) ;
#317 = CARTESIAN_POINT ( 'NONE',  ( 0.0000000000000000000, 0.0000000000000000000, 0.0000000000000000000 ) ) ;
#318 = DIRECTION ( 'NONE',  ( 3.330669073875469600E-016, -4.449011913191122800E-016, 1.000000000000000000 ) ) ;
#319 = PERSON_AND_ORGANIZATION ( #226, #51 ) ;
#320 = CONICAL_SURFACE ( 'NONE', #130, 3.437007874015748100, 0.7853981633974501700 ) ;
#321 = CARTESIAN_POINT ( 'NONE',  ( -16.06299212598425200, -9.294943710627467500E-016, -3.149606299212603900 ) ) ;
#322 = DIRECTION ( 'NONE',  ( -3.469446951953614200E-016, 3.469446951953614200E-016, -1.000000000000000000 ) ) ;
#323 = APPROVAL_ROLE ( '' ) ;
#324 = DIRECTION ( 'NONE',  ( 1.000000000000000000, 1.451011086532423900E-016, -3.330669073875469100E-016 ) ) ;
#325 = ADVANCED_FACE ( 'NONE', ( #150, #330, #75 ), #99, .F. ) ;
#326 = PERSON_AND_ORGANIZATION_ROLE ( 'design_supplier' ) ;
#327 = PERSON_AND_ORGANIZATION ( #226, #51 ) ;
#328 = EDGE_LOOP ( 'NONE', ( #382 ) ) ;
#329 = DIRECTION ( 'NONE',  ( 3.330669073875469600E-016, -4.449011913191122800E-016, 1.000000000000000000 ) ) ;
#330 = FACE_OUTER_BOUND ( 'NONE', #16, .T. ) ;
#331 = CARTESIAN_POINT ( 'NONE',  ( -8.031496062992125900, 3.637499148384682200E-016, -3.437007874015747700 ) ) ;
#332 = CALENDAR_DATE ( 2017, 27, 7 ) ;
#333 = FACE_OUTER_BOUND ( 'NONE', #315, .T. ) ;
#334 = PRODUCT ( '581245060', '581245060', '', ( #258 ) ) ;
#335 = CARTESIAN_POINT ( 'NONE',  ( -8.031496062992125900, -2.694507880607082200E-015, 3.437007874015747700 ) ) ;
#336 = AXIS2_PLACEMENT_3D ( 'NONE', #204, #310, #344 ) ;
#337 = ADVANCED_FACE ( 'NONE', ( #61, #164 ), #252, .F. ) ;
#338 = CARTESIAN_POINT ( 'NONE',  ( 0.0000000000000000000, 0.0000000000000000000, 0.0000000000000000000 ) ) ;
#339 = PERSON_AND_ORGANIZATION ( #226, #51 ) ;
#340 = ORIENTED_EDGE ( 'NONE', *, *, #215, .T. ) ;
#341 = DIRECTION ( 'NONE',  ( -3.469446951953614200E-016, 4.449011913191123700E-016, -1.000000000000000000 ) ) ;
#342 =( GEOMETRIC_REPRESENTATION_CONTEXT ( 3 ) GLOBAL_UNCERTAINTY_ASSIGNED_CONTEXT ( ( #349 ) ) GLOBAL_UNIT_ASSIGNED_CONTEXT ( ( #157, #380, #168 ) ) REPRESENTATION_CONTEXT ( 'NONE', 'WORKASPACE' ) );
#343 = CARTESIAN_POINT ( 'NONE',  ( -11.83858267716535400, -1.717791471339759300E-015, -3.943040120135248900E-015 ) ) ;
#344 = DIRECTION ( 'NONE',  ( -3.179332831114423100E-016, 4.449011913191122800E-016, -1.000000000000000000 ) ) ;
#345 = ORIENTED_EDGE ( 'NONE', *, *, #145, .F. ) ;
#346 = PRODUCT_DEFINITION ( 'UNKNOWN', '', #13, #356 ) ;
#347 = ORIENTED_EDGE ( 'NONE', *, *, #80, .F. ) ;
#348 = ADVANCED_FACE ( 'NONE', ( #238, #301 ), #200, .T. ) ;
#349 = UNCERTAINTY_MEASURE_WITH_UNIT (LENGTH_MEASURE( 1.000000000000000100E-005 ), #157, 'distance_accuracy_value', 'NONE');
#350 = CARTESIAN_POINT ( 'NONE',  ( -8.031496062992125900, -2.153250749776357400E-015, 2.574803149606300000 ) ) ;
#351 = AXIS2_PLACEMENT_3D ( 'NONE', #222, #178, #379 ) ;
#352 = SHAPE_DEFINITION_REPRESENTATION ( #286, #311 ) ;
#353 = DATE_AND_TIME ( #118, #185 ) ;
#354 = ORIENTED_EDGE ( 'NONE', *, *, #139, .T. ) ;
#355 = CC_DESIGN_APPROVAL ( #192, ( #47 ) ) ;
#356 = DESIGN_CONTEXT ( 'detailed design', #151, 'design' ) ;
#357 = EDGE_CURVE ( 'NONE', #280, #280, #105, .T. ) ;
#358 = ADVANCED_FACE ( 'NONE', ( #25, #2 ), #259, .T. ) ;
#359 = VERTEX_POINT ( 'NONE', #242 ) ;
#360 = APPROVAL_PERSON_ORGANIZATION ( #174, #111, #82 ) ;
#361 = ORIENTED_EDGE ( 'NONE', *, *, #80, .T. ) ;
#362 = EDGE_CURVE ( 'NONE', #65, #183, #171, .T. ) ;
#363 = CARTESIAN_POINT ( 'NONE',  ( -14.90551181102361700, 6.874015748031489200, 3.437007874015737900 ) ) ;
#364 = LOCAL_TIME ( 15, 2, 47.00000000000000000, #45 ) ;
#365 = CARTESIAN_POINT ( 'NONE',  ( -16.06299212598425200, -2.330757965768612400E-015, -5.350051110792091300E-015 ) ) ;
#366 = FACE_OUTER_BOUND ( 'NONE', #224, .T. ) ;
#367 = DIRECTION ( 'NONE',  ( -4.243971806671086700E-016, 4.449011913191121800E-016, -1.000000000000000000 ) ) ;
#368 = AXIS2_PLACEMENT_3D ( 'NONE', #93, #219, #381 ) ;
#369 = COORDINATED_UNIVERSAL_TIME_OFFSET ( 5, 0, .BEHIND. ) ;
#370 = VERTEX_POINT ( 'NONE', #8 ) ;
#371 = APPLICATION_PROTOCOL_DEFINITION ( 'international standard', 'config_control_design', 1994, #151 ) ;
#372 = PLANE ( 'NONE',  #184 ) ;
#373 = DIRECTION ( 'NONE',  ( -6.358665662228842300E-016, 4.449011913191122800E-016, -1.000000000000000000 ) ) ;
#374 = CARTESIAN_POINT ( 'NONE',  ( -11.83858267716535400, 3.437007874015748100, -6.313965353989468800E-015 ) ) ;
#375 = COORDINATED_UNIVERSAL_TIME_OFFSET ( 5, 0, .BEHIND. ) ;
#376 = FACE_OUTER_BOUND ( 'NONE', #328, .T. ) ;
#377 = CARTESIAN_POINT ( 'NONE',  ( -11.83858267716535400, -1.717791471339759300E-015, -3.943040120135248900E-015 ) ) ;
#378 = AXIS2_PLACEMENT_3D ( 'NONE', #244, #230, #220 ) ;
#379 = DIRECTION ( 'NONE',  ( -3.469446951953614200E-016, 4.449011913191123700E-016, -1.000000000000000000 ) ) ;
#380 =( NAMED_UNIT ( * ) PLANE_ANGLE_UNIT ( ) SI_UNIT ( $, .RADIAN. ) );
#381 = DIRECTION ( 'NONE',  ( 0.0000000000000000000, 4.449011913191123700E-016, -1.000000000000000000 ) ) ;
#382 = ORIENTED_EDGE ( 'NONE', *, *, #73, .T. ) ;
#383 = ADVANCED_FACE ( 'NONE', ( #19, #208 ), #86, .T. ) ;
#384 = VERTEX_POINT ( 'NONE', #39 ) ;
#385 = CARTESIAN_POINT ( 'NONE',  ( -12.12598425196850400, -3.582301637665178800E-016, -3.149606299212602600 ) ) ;
#386 = FACE_BOUND ( 'NONE', #146, .T. ) ;
ENDSEC;
END-ISO-10303-21;
