ISO-10303-21;
HEADER;
FILE_DESCRIPTION (( 'STEP AP203' ),
    '1' );
FILE_NAME ('581245040.STEP',
    '2015-12-04T21:28:09',
    ( '' ),
    ( '' ),
    'SwSTEP 2.0',
    'SolidWorks 2015',
    '' );
FILE_SCHEMA (( 'CONFIG_CONTROL_DESIGN' ));
ENDSEC;

DATA;
#1 = CC_DESIGN_APPROVAL ( #44, ( #47 ) ) ;
#2 = CC_DESIGN_PERSON_AND_ORGANIZATION_ASSIGNMENT ( #135, #302, ( #7 ) ) ;
#3 = DIRECTION ( 'NONE',  ( 0.0000000000000000000, 0.0000000000000000000, -1.000000000000000000 ) ) ;
#4 = FACE_BOUND ( 'NONE', #194, .T. ) ;
#5 = DIRECTION ( 'NONE',  ( 0.0000000000000000000, 0.0000000000000000000, -1.000000000000000000 ) ) ;
#6 = DATE_AND_TIME ( #202, #163 ) ;
#7 = SECURITY_CLASSIFICATION ( '', '', #28 ) ;
#8 = CARTESIAN_POINT ( 'NONE',  ( -6.240157480314961100, 0.0000000000000000000, 2.362204724409448200 ) ) ;
#9 = CC_DESIGN_PERSON_AND_ORGANIZATION_ASSIGNMENT ( #353, #360, ( #33 ) ) ;
#10 = DIRECTION ( 'NONE',  ( 0.0000000000000000000, 0.0000000000000000000, -1.000000000000000000 ) ) ;
#11 = CARTESIAN_POINT ( 'NONE',  ( -6.240157480314961100, 6.220472440944882400, -2.165354330708661600 ) ) ;
#12 = DIRECTION ( 'NONE',  ( 0.0000000000000000000, 0.0000000000000000000, -1.000000000000000000 ) ) ;
#13 = FACE_OUTER_BOUND ( 'NONE', #27, .T. ) ;
#14 = CARTESIAN_POINT ( 'NONE',  ( -6.240157480314961100, 0.0000000000000000000, -2.362204724409448200 ) ) ;
#15 = EDGE_LOOP ( 'NONE', ( #145 ) ) ;
#16 = CARTESIAN_POINT ( 'NONE',  ( -8.897637795275590700, 2.362204724409448600, -5.785541829082086400E-016 ) ) ;
#17 = CALENDAR_DATE ( 2015, 4, 12 ) ;
#18 = VERTEX_POINT ( 'NONE', #77 ) ;
#19 = CC_DESIGN_PERSON_AND_ORGANIZATION_ASSIGNMENT ( #337, #105, ( #33 ) ) ;
#20 = CARTESIAN_POINT ( 'NONE',  ( -6.240157480314961100, 6.220472440944882400, 0.0000000000000000000 ) ) ;
#21 = DIRECTION ( 'NONE',  ( 0.0000000000000000000, 1.000000000000000000, 0.0000000000000000000 ) ) ;
#22 = APPROVAL_STATUS ( 'not_yet_approved' ) ;
#23 = EDGE_LOOP ( 'NONE', ( #289 ) ) ;
#24 = CC_DESIGN_APPROVAL ( #29, ( #33 ) ) ;
#25 = CYLINDRICAL_SURFACE ( 'NONE', #307, 1.771653543307086600 ) ;
#26 = CYLINDRICAL_SURFACE ( 'NONE', #122, 1.771653543307086600 ) ;
#27 = EDGE_LOOP ( 'NONE', ( #219 ) ) ;
#28 = SECURITY_CLASSIFICATION_LEVEL ( 'unclassified' ) ;
#29 = APPROVAL ( #22, 'UNSPECIFIED' ) ;
#30 = DIRECTION ( 'NONE',  ( -1.000000000000000000, -0.0000000000000000000, 0.0000000000000000000 ) ) ;
#31 = VERTEX_POINT ( 'NONE', #149 ) ;
#32 = APPROVAL_PERSON_ORGANIZATION ( #233, #44, #102 ) ;
#33 = PRODUCT_DEFINITION_FORMATION_WITH_SPECIFIED_SOURCE ( 'ANY', '', #320, .NOT_KNOWN. ) ;
#34 = EDGE_LOOP ( 'NONE', ( #227 ) ) ;
#35 = MANIFOLD_SOLID_BREP ( '1', #263 ) ;
#36 = CC_DESIGN_DATE_AND_TIME_ASSIGNMENT ( #247, #293, ( #47 ) ) ;
#37 = CYLINDRICAL_SURFACE ( 'NONE', #205, 2.165354330708661600 ) ;
#38 = ORIENTED_EDGE ( 'NONE', *, *, #367, .T. ) ;
#39 = ORIENTED_EDGE ( 'NONE', *, *, #297, .F. ) ;
#40 = CARTESIAN_POINT ( 'NONE',  ( -5.157480314960630500, 6.220472440944882400, -2.651706671662626400E-016 ) ) ;
#41 = CYLINDRICAL_SURFACE ( 'NONE', #152, 2.362204724409448600 ) ;
#42 = DIRECTION ( 'NONE',  ( 0.0000000000000000000, 0.0000000000000000000, -1.000000000000000000 ) ) ;
#43 = ORIENTED_EDGE ( 'NONE', *, *, #183, .T. ) ;
#44 = APPROVAL ( #319, 'UNSPECIFIED' ) ;
#45 = CARTESIAN_POINT ( 'NONE',  ( -6.240157480314961100, 0.0000000000000000000, -2.362204724409448200 ) ) ;
#46 = DIRECTION ( 'NONE',  ( 0.0000000000000000000, 0.0000000000000000000, -1.000000000000000000 ) ) ;
#47 = PRODUCT_DEFINITION ( 'UNKNOWN', '', #33, #184 ) ;
#48 = DIRECTION ( 'NONE',  ( 0.0000000000000000000, 0.0000000000000000000, -1.000000000000000000 ) ) ;
#49 = LOCAL_TIME ( 16, 28, 9.000000000000000000, #172 ) ;
#50 = COORDINATED_UNIVERSAL_TIME_OFFSET ( 5, 0, .BEHIND. ) ;
#51 = VERTEX_POINT ( 'NONE', #148 ) ;
#52 = DIRECTION ( 'NONE',  ( -0.0000000000000000000, -1.000000000000000000, -1.156482317317870700E-016 ) ) ;
#53 = ORIENTED_EDGE ( 'NONE', *, *, #240, .T. ) ;
#54 = APPLICATION_CONTEXT ( 'configuration controlled 3d designs of mechanical parts and assemblies' ) ;
#55 = CIRCLE ( 'NONE', #89, 2.362204724409448600 ) ;
#56 = DIRECTION ( 'NONE',  ( 0.0000000000000000000, -1.000000000000000000, 0.0000000000000000000 ) ) ;
#57 = ORIENTED_EDGE ( 'NONE', *, *, #129, .F. ) ;
#58 = DIRECTION ( 'NONE',  ( 1.000000000000000000, 0.0000000000000000000, 0.0000000000000000000 ) ) ;
#59 = EDGE_LOOP ( 'NONE', ( #61 ) ) ;
#60 = CC_DESIGN_PERSON_AND_ORGANIZATION_ASSIGNMENT ( #285, #201, ( #320 ) ) ;
#61 = ORIENTED_EDGE ( 'NONE', *, *, #271, .F. ) ;
#62 = AXIS2_PLACEMENT_3D ( 'NONE', #245, #140, #58 ) ;
#63 = DIRECTION ( 'NONE',  ( 0.0000000000000000000, 1.000000000000000000, -2.449212707644750100E-016 ) ) ;
#64 = EDGE_LOOP ( 'NONE', ( #192, #78 ) ) ;
#65 = CARTESIAN_POINT ( 'NONE',  ( -10.96456692913385700, 4.724409448818897200, -2.362204724409447300 ) ) ;
#66 = CIRCLE ( 'NONE', #303, 2.362204724409450400 ) ;
#67 = CC_DESIGN_PERSON_AND_ORGANIZATION_ASSIGNMENT ( #273, #173, ( #47 ) ) ;
#68 = FACE_OUTER_BOUND ( 'NONE', #270, .T. ) ;
#69 = DIRECTION ( 'NONE',  ( 1.000000000000000000, 0.0000000000000000000, 0.0000000000000000000 ) ) ;
#70 =( LENGTH_UNIT ( ) NAMED_UNIT ( * ) SI_UNIT ( $, .METRE. ) );
#71 = CARTESIAN_POINT ( 'NONE',  ( -12.48031496062992200, 0.0000000000000000000, -1.771653543307086600 ) ) ;
#72 = ORIENTED_EDGE ( 'NONE', *, *, #323, .T. ) ;
#73 = CARTESIAN_POINT ( 'NONE',  ( -1.515748031496064300, 4.724409448818897200, 2.362204724409447300 ) ) ;
#74 = CARTESIAN_POINT ( 'NONE',  ( -8.897637795275590700, 0.0000000000000000000, 0.0000000000000000000 ) ) ;
#75 = VERTEX_POINT ( 'NONE', #16 ) ;
#76 = CARTESIAN_POINT ( 'NONE',  ( -10.96456692913385700, 4.724409448818897200, 2.362204724409447300 ) ) ;
#77 = CARTESIAN_POINT ( 'NONE',  ( 0.0000000000000000000, 0.0000000000000000000, -2.165354330708661600 ) ) ;
#78 = ORIENTED_EDGE ( 'NONE', *, *, #333, .T. ) ;
#79 = EDGE_CURVE ( 'NONE', #51, #51, #66, .T. ) ;
#80 = VERTEX_POINT ( 'NONE', #272 ) ;
#81 = ORIENTED_EDGE ( 'NONE', *, *, #373, .F. ) ;
#82 = DATE_AND_TIME ( #17, #312 ) ;
#83 = ADVANCED_FACE ( 'NONE', ( #364, #295, #186 ), #25, .F. ) ;
#84 = VERTEX_POINT ( 'NONE', #384 ) ;
#85 = CC_DESIGN_DATE_AND_TIME_ASSIGNMENT ( #82, #159, ( #7 ) ) ;
#86 = EDGE_LOOP ( 'NONE', ( #254 ) ) ;
#87 = FACE_BOUND ( 'NONE', #114, .T. ) ;
#88 = ADVANCED_FACE ( 'NONE', ( #248, #230 ), #296, .T. ) ;
#89 = AXIS2_PLACEMENT_3D ( 'NONE', #195, #200, #63 ) ;
#90 = CYLINDRICAL_SURFACE ( 'NONE', #221, 2.165354330708661600 ) ;
#91 =( BOUNDED_CURVE ( )  B_SPLINE_CURVE ( 3, ( #377, #181, #325, #168 ),
 .UNSPECIFIED., .F., .T. ) 
 B_SPLINE_CURVE_WITH_KNOTS ( ( 4, 4 ),
 ( 1.570796326794896600, 4.712388980384689700 ),
 .UNSPECIFIED. ) 
 CURVE ( )  GEOMETRIC_REPRESENTATION_ITEM ( )  RATIONAL_B_SPLINE_CURVE ( ( 1.000000000000000000, 0.3333333333333333700, 0.3333333333333333700, 1.000000000000000000 ) ) 
 REPRESENTATION_ITEM ( '' )  );
#92 = CARTESIAN_POINT ( 'NONE',  ( -6.240157480314961100, 2.637795275590548700, -7.737880731344694800E-048 ) ) ;
#93 = APPROVAL_PERSON_ORGANIZATION ( #386, #309, #268 ) ;
#94 = DIRECTION ( 'NONE',  ( 0.0000000000000000000, 0.0000000000000000000, -1.000000000000000000 ) ) ;
#95 = SHAPE_DEFINITION_REPRESENTATION ( #134, #141 ) ;
#96 =( BOUNDED_CURVE ( )  B_SPLINE_CURVE ( 3, ( #8, #76, #65, #106 ),
 .UNSPECIFIED., .F., .F. ) 
 B_SPLINE_CURVE_WITH_KNOTS ( ( 4, 4 ),
 ( 1.570796326794896800, 4.712388980384689700 ),
 .UNSPECIFIED. ) 
 CURVE ( )  GEOMETRIC_REPRESENTATION_ITEM ( )  RATIONAL_B_SPLINE_CURVE ( ( 1.000000000000000000, 0.3333333333333333700, 0.3333333333333333700, 1.000000000000000000 ) ) 
 REPRESENTATION_ITEM ( '' )  );
#97 = DIRECTION ( 'NONE',  ( -1.000000000000000000, -0.0000000000000000000, -0.0000000000000000000 ) ) ;
#98 = FACE_OUTER_BOUND ( 'NONE', #59, .T. ) ;
#99 = EDGE_LOOP ( 'NONE', ( #38 ) ) ;
#100 = AXIS2_PLACEMENT_3D ( 'NONE', #291, #197, #48 ) ;
#101 = DIRECTION ( 'NONE',  ( 0.0000000000000000000, 0.0000000000000000000, -1.000000000000000000 ) ) ;
#102 = APPROVAL_ROLE ( '' ) ;
#103 = EDGE_CURVE ( 'NONE', #80, #80, #157, .T. ) ;
#104 = FACE_OUTER_BOUND ( 'NONE', #385, .T. ) ;
#105 = PERSON_AND_ORGANIZATION_ROLE ( 'creator' ) ;
#106 = CARTESIAN_POINT ( 'NONE',  ( -6.240157480314961100, 0.0000000000000000000, -2.362204724409448200 ) ) ;
#107 = DIRECTION ( 'NONE',  ( -0.0000000000000000000, -1.000000000000000000, -0.0000000000000000000 ) ) ;
#108 = AXIS2_PLACEMENT_3D ( 'NONE', #115, #30, #327 ) ;
#109 = CIRCLE ( 'NONE', #317, 2.165354330708661600 ) ;
#110 = ADVANCED_FACE ( 'NONE', ( #243, #349 ), #379, .T. ) ;
#111 = VERTEX_POINT ( 'NONE', #144 ) ;
#112 = DIRECTION ( 'NONE',  ( 1.000000000000000000, 0.0000000000000000000, 0.0000000000000000000 ) ) ;
#113 = CARTESIAN_POINT ( 'NONE',  ( -6.240157480314961100, 2.834645669291338900, 0.0000000000000000000 ) ) ;
#114 = EDGE_LOOP ( 'NONE', ( #123, #258 ) ) ;
#115 = CARTESIAN_POINT ( 'NONE',  ( -3.582677165354330600, 0.0000000000000000000, 0.0000000000000000000 ) ) ;
#116 = DATE_AND_TIME ( #178, #262 ) ;
#117 = CARTESIAN_POINT ( 'NONE',  ( -12.48031496062992200, 0.0000000000000000000, 0.0000000000000000000 ) ) ;
#118 = VERTEX_POINT ( 'NONE', #203 ) ;
#119 = ORGANIZATION ( 'UNSPECIFIED', 'UNSPECIFIED', '' ) ;
#120 = APPROVAL_ROLE ( '' ) ;
#121 = EDGE_LOOP ( 'NONE', ( #72 ) ) ;
#122 = AXIS2_PLACEMENT_3D ( 'NONE', #210, #56, #354 ) ;
#123 = ORIENTED_EDGE ( 'NONE', *, *, #329, .T. ) ;
#124 = APPROVAL_DATE_TIME ( #6, #29 ) ;
#125 = DIRECTION ( 'NONE',  ( 0.0000000000000000000, 0.0000000000000000000, -1.000000000000000000 ) ) ;
#126 = CARTESIAN_POINT ( 'NONE',  ( -10.78740157480315000, 0.0000000000000000000, 0.0000000000000000000 ) ) ;
#127 = CIRCLE ( 'NONE', #165, 2.165354330708661600 ) ;
#128 = FACE_BOUND ( 'NONE', #99, .T. ) ;
#129 = EDGE_CURVE ( 'NONE', #345, #345, #109, .T. ) ;
#130 = EDGE_LOOP ( 'NONE', ( #308 ) ) ;
#131 = DIRECTION ( 'NONE',  ( 1.000000000000000000, 0.0000000000000000000, 0.0000000000000000000 ) ) ;
#132 = CARTESIAN_POINT ( 'NONE',  ( -6.240157480314961100, 1.084824920504545200E-016, 1.771653543307086600 ) ) ;
#133 = DIRECTION ( 'NONE',  ( -1.000000000000000000, -0.0000000000000000000, -0.0000000000000000000 ) ) ;
#134 = PRODUCT_DEFINITION_SHAPE ( 'NONE', 'NONE',  #47 ) ;
#135 = PERSON_AND_ORGANIZATION ( #294, #119 ) ;
#136 = CARTESIAN_POINT ( 'NONE',  ( -9.783464566929133400, 3.543307086614172700, 1.771653543307086600 ) ) ;
#137 = DIRECTION ( 'NONE',  ( 1.000000000000000000, 0.0000000000000000000, 0.0000000000000000000 ) ) ;
#138 = CIRCLE ( 'NONE', #229, 2.165354330708661600 ) ;
#139 = DIRECTION ( 'NONE',  ( -0.0000000000000000000, -1.000000000000000000, -0.0000000000000000000 ) ) ;
#140 = DIRECTION ( 'NONE',  ( 0.0000000000000000000, 0.0000000000000000000, 1.000000000000000000 ) ) ;
#141 = ADVANCED_BREP_SHAPE_REPRESENTATION ( '581245040', ( #35, #62 ), #217 ) ;
#142 = DIRECTION ( 'NONE',  ( -1.000000000000000000, 0.0000000000000000000, 0.0000000000000000000 ) ) ;
#143 = ADVANCED_FACE ( 'NONE', ( #280, #251 ), #37, .T. ) ;
#144 = CARTESIAN_POINT ( 'NONE',  ( -6.240157480314961100, 0.0000000000000000000, -1.771653543307086600 ) ) ;
#145 = ORIENTED_EDGE ( 'NONE', *, *, #288, .T. ) ;
#146 = CARTESIAN_POINT ( 'NONE',  ( -6.240157480314961100, 6.220472440944882400, -1.771653543307086600 ) ) ;
#147 = ORIENTED_EDGE ( 'NONE', *, *, #336, .F. ) ;
#148 = CARTESIAN_POINT ( 'NONE',  ( -3.877952755905510300, 2.637795275590548700, -5.785541829083272600E-016 ) ) ;
#149 = CARTESIAN_POINT ( 'NONE',  ( -6.240157480314961100, 2.834645669291338900, -2.165354330708661600 ) ) ;
#150 = EDGE_LOOP ( 'NONE', ( #368 ) ) ;
#151 = AXIS2_PLACEMENT_3D ( 'NONE', #126, #69, #46 ) ;
#152 = AXIS2_PLACEMENT_3D ( 'NONE', #167, #318, #101 ) ;
#153 = AXIS2_PLACEMENT_3D ( 'NONE', #117, #316, #160 ) ;
#154 = PRODUCT_RELATED_PRODUCT_CATEGORY ( 'detail', '', ( #320 ) ) ;
#155 = CARTESIAN_POINT ( 'NONE',  ( -1.692913385826771800, 0.0000000000000000000, 0.0000000000000000000 ) ) ;
#156 = CARTESIAN_POINT ( 'NONE',  ( -6.240157480314961100, 2.637795275590548700, 0.0000000000000000000 ) ) ;
#157 = CIRCLE ( 'NONE', #375, 2.165354330708661600 ) ;
#158 = CARTESIAN_POINT ( 'NONE',  ( -6.240157480314961100, 0.0000000000000000000, 2.362204724409448200 ) ) ;
#159 = DATE_TIME_ROLE ( 'classification_date' ) ;
#160 = DIRECTION ( 'NONE',  ( 0.0000000000000000000, 0.0000000000000000000, -1.000000000000000000 ) ) ;
#161 = ORIENTED_EDGE ( 'NONE', *, *, #329, .F. ) ;
#162 = CARTESIAN_POINT ( 'NONE',  ( -9.094488188976377800, 0.0000000000000000000, -2.165354330708661600 ) ) ;
#163 = LOCAL_TIME ( 16, 28, 9.000000000000000000, #50 ) ;
#164 =( CONVERSION_BASED_UNIT ( 'INCH', #347 ) LENGTH_UNIT ( ) NAMED_UNIT ( #363 ) );
#165 = AXIS2_PLACEMENT_3D ( 'NONE', #113, #242, #3 ) ;
#166 = COORDINATED_UNIVERSAL_TIME_OFFSET ( 5, 0, .BEHIND. ) ;
#167 = CARTESIAN_POINT ( 'NONE',  ( -6.240157480314961100, 0.0000000000000000000, 0.0000000000000000000 ) ) ;
#168 = CARTESIAN_POINT ( 'NONE',  ( -6.240157480314961100, 1.084824920504545200E-016, 1.771653543307086600 ) ) ;
#169 =( BOUNDED_CURVE ( )  B_SPLINE_CURVE ( 3, ( #14, #299, #73, #252 ),
 .UNSPECIFIED., .F., .T. ) 
 B_SPLINE_CURVE_WITH_KNOTS ( ( 4, 4 ),
 ( 1.570796326794896600, 4.712388980384689700 ),
 .UNSPECIFIED. ) 
 CURVE ( )  GEOMETRIC_REPRESENTATION_ITEM ( )  RATIONAL_B_SPLINE_CURVE ( ( 1.000000000000000000, 0.3333333333333333700, 0.3333333333333333700, 1.000000000000000000 ) ) 
 REPRESENTATION_ITEM ( '' )  );
#170 = VERTEX_POINT ( 'NONE', #146 ) ;
#171 = ADVANCED_FACE ( 'NONE', ( #341, #324 ), #281, .T. ) ;
#172 = COORDINATED_UNIVERSAL_TIME_OFFSET ( 5, 0, .BEHIND. ) ;
#173 = PERSON_AND_ORGANIZATION_ROLE ( 'creator' ) ;
#174 = FACE_BOUND ( 'NONE', #342, .T. ) ;
#175 = APPLICATION_PROTOCOL_DEFINITION ( 'international standard', 'config_control_design', 1994, #322 ) ;
#176 =( NAMED_UNIT ( * ) PLANE_ANGLE_UNIT ( ) SI_UNIT ( $, .RADIAN. ) );
#177 = FACE_OUTER_BOUND ( 'NONE', #357, .T. ) ;
#178 = CALENDAR_DATE ( 2015, 4, 12 ) ;
#179 = FACE_OUTER_BOUND ( 'NONE', #196, .T. ) ;
#180 = VERTEX_POINT ( 'NONE', #11 ) ;
#181 = CARTESIAN_POINT ( 'NONE',  ( -2.696850393700788800, 3.543307086614172700, -1.771653543307086600 ) ) ;
#182 = ORIENTED_EDGE ( 'NONE', *, *, #323, .F. ) ;
#183 = EDGE_CURVE ( 'NONE', #18, #18, #298, .T. ) ;
#184 = DESIGN_CONTEXT ( 'detailed design', #54, 'design' ) ;
#185 = AXIS2_PLACEMENT_3D ( 'NONE', #206, #107, #212 ) ;
#186 = FACE_OUTER_BOUND ( 'NONE', #276, .T. ) ;
#187 = CALENDAR_DATE ( 2015, 4, 12 ) ;
#188 = FACE_OUTER_BOUND ( 'NONE', #215, .T. ) ;
#189 = AXIS2_PLACEMENT_3D ( 'NONE', #228, #97, #10 ) ;
#190 = CIRCLE ( 'NONE', #334, 2.362204724409448600 ) ;
#191 = FACE_OUTER_BOUND ( 'NONE', #286, .T. ) ;
#192 = ORIENTED_EDGE ( 'NONE', *, *, #373, .T. ) ;
#193 = AXIS2_PLACEMENT_3D ( 'NONE', #235, #142, #214 ) ;
#194 = EDGE_LOOP ( 'NONE', ( #278 ) ) ;
#195 = CARTESIAN_POINT ( 'NONE',  ( -3.582677165354330600, 0.0000000000000000000, 0.0000000000000000000 ) ) ;
#196 = EDGE_LOOP ( 'NONE', ( #277 ) ) ;
#197 = DIRECTION ( 'NONE',  ( 1.000000000000000000, 0.0000000000000000000, -0.0000000000000000000 ) ) ;
#198 = CIRCLE ( 'NONE', #153, 1.771653543307086600 ) ;
#199 = AXIS2_PLACEMENT_3D ( 'NONE', #92, #52, #313 ) ;
#200 = DIRECTION ( 'NONE',  ( 1.000000000000000000, -0.0000000000000000000, -0.0000000000000000000 ) ) ;
#201 = PERSON_AND_ORGANIZATION_ROLE ( 'design_owner' ) ;
#202 = CALENDAR_DATE ( 2015, 4, 12 ) ;
#203 = CARTESIAN_POINT ( 'NONE',  ( -12.48031496062992200, 0.0000000000000000000, -2.165354330708661600 ) ) ;
#204 = CYLINDRICAL_SURFACE ( 'NONE', #151, 2.165354330708661600 ) ;
#205 = AXIS2_PLACEMENT_3D ( 'NONE', #155, #372, #269 ) ;
#206 = CARTESIAN_POINT ( 'NONE',  ( -6.240157480314961100, 1.318897637795275700, 0.0000000000000000000 ) ) ;
#207 = ORIENTED_EDGE ( 'NONE', *, *, #240, .F. ) ;
#208 = DIRECTION ( 'NONE',  ( 0.0000000000000000000, -1.000000000000000000, 0.0000000000000000000 ) ) ;
#209 = CC_DESIGN_SECURITY_CLASSIFICATION ( #7, ( #33 ) ) ;
#210 = CARTESIAN_POINT ( 'NONE',  ( -6.240157480314961100, 0.0000000000000000000, 0.0000000000000000000 ) ) ;
#211 = EDGE_LOOP ( 'NONE', ( #237, #81 ) ) ;
#212 = DIRECTION ( 'NONE',  ( 0.0000000000000000000, 0.0000000000000000000, -1.000000000000000000 ) ) ;
#213 = ADVANCED_FACE ( 'NONE', ( #98, #104 ), #90, .T. ) ;
#214 = DIRECTION ( 'NONE',  ( 0.0000000000000000000, 0.0000000000000000000, 1.000000000000000000 ) ) ;
#215 = EDGE_LOOP ( 'NONE', ( #182 ) ) ;
#216 = ORIENTED_EDGE ( 'NONE', *, *, #271, .T. ) ;
#217 =( GEOMETRIC_REPRESENTATION_CONTEXT ( 3 ) GLOBAL_UNCERTAINTY_ASSIGNED_CONTEXT ( ( #283 ) ) GLOBAL_UNIT_ASSIGNED_CONTEXT ( ( #164, #176, #356 ) ) REPRESENTATION_CONTEXT ( 'NONE', 'WORKASPACE' ) );
#218 = ORIENTED_EDGE ( 'NONE', *, *, #236, .F. ) ;
#219 = ORIENTED_EDGE ( 'NONE', *, *, #355, .F. ) ;
#220 = EDGE_LOOP ( 'NONE', ( #282 ) ) ;
#221 = AXIS2_PLACEMENT_3D ( 'NONE', #232, #139, #12 ) ;
#222 = CALENDAR_DATE ( 2015, 4, 12 ) ;
#223 = AXIS2_PLACEMENT_3D ( 'NONE', #264, #208, #261 ) ;
#224 = ORIENTED_EDGE ( 'NONE', *, *, #288, .F. ) ;
#225 = PERSON_AND_ORGANIZATION ( #294, #119 ) ;
#226 = EDGE_LOOP ( 'NONE', ( #216 ) ) ;
#227 = ORIENTED_EDGE ( 'NONE', *, *, #183, .F. ) ;
#228 = CARTESIAN_POINT ( 'NONE',  ( 0.0000000000000000000, 0.0000000000000000000, 0.0000000000000000000 ) ) ;
#229 = AXIS2_PLACEMENT_3D ( 'NONE', #238, #133, #125 ) ;
#230 = FACE_BOUND ( 'NONE', #130, .T. ) ;
#231 = EDGE_LOOP ( 'NONE', ( #43 ) ) ;
#232 = CARTESIAN_POINT ( 'NONE',  ( -6.240157480314961100, 4.527559055118110200, 0.0000000000000000000 ) ) ;
#233 = PERSON_AND_ORGANIZATION ( #294, #119 ) ;
#234 = FACE_OUTER_BOUND ( 'NONE', #259, .T. ) ;
#235 = CARTESIAN_POINT ( 'NONE',  ( -12.48031496062992200, 1.082677165354330800, -2.651706671662626400E-016 ) ) ;
#236 = EDGE_CURVE ( 'NONE', #314, #279, #169, .T. ) ;
#237 = ORIENTED_EDGE ( 'NONE', *, *, #333, .F. ) ;
#238 = CARTESIAN_POINT ( 'NONE',  ( -12.48031496062992200, 0.0000000000000000000, 0.0000000000000000000 ) ) ;
#239 = VERTEX_POINT ( 'NONE', #275 ) ;
#240 = EDGE_CURVE ( 'NONE', #31, #31, #127, .T. ) ;
#241 = LOCAL_TIME ( 16, 28, 9.000000000000000000, #328 ) ;
#242 = DIRECTION ( 'NONE',  ( 0.0000000000000000000, 1.000000000000000000, 0.0000000000000000000 ) ) ;
#243 = FACE_OUTER_BOUND ( 'NONE', #231, .T. ) ;
#244 = APPLICATION_PROTOCOL_DEFINITION ( 'international standard', 'config_control_design', 1994, #54 ) ;
#245 = CARTESIAN_POINT ( 'NONE',  ( 0.0000000000000000000, 0.0000000000000000000, 0.0000000000000000000 ) ) ;
#246 = ADVANCED_FACE ( 'NONE', ( #188, #68 ), #204, .T. ) ;
#247 = DATE_AND_TIME ( #222, #49 ) ;
#248 = FACE_OUTER_BOUND ( 'NONE', #226, .T. ) ;
#249 = CARTESIAN_POINT ( 'NONE',  ( -9.783464566929133400, 3.543307086614172700, -1.771653543307085700 ) ) ;
#250 =( BOUNDED_CURVE ( )  B_SPLINE_CURVE ( 3, ( #338, #136, #249, #300 ),
 .UNSPECIFIED., .F., .T. ) 
 B_SPLINE_CURVE_WITH_KNOTS ( ( 4, 4 ),
 ( 1.570796326794896600, 4.712388980384689700 ),
 .UNSPECIFIED. ) 
 CURVE ( )  GEOMETRIC_REPRESENTATION_ITEM ( )  RATIONAL_B_SPLINE_CURVE ( ( 1.000000000000000000, 0.3333333333333333700, 0.3333333333333333700, 1.000000000000000000 ) ) 
 REPRESENTATION_ITEM ( '' )  );
#251 = FACE_OUTER_BOUND ( 'NONE', #34, .T. ) ;
#252 = CARTESIAN_POINT ( 'NONE',  ( -6.240157480314961100, 0.0000000000000000000, 2.362204724409448200 ) ) ;
#253 = CONICAL_SURFACE ( 'NONE', #108, 2.362204724409449100, 0.7853981633974482800 ) ;
#254 = ORIENTED_EDGE ( 'NONE', *, *, #79, .T. ) ;
#255 = DIRECTION ( 'NONE',  ( 0.0000000000000000000, 1.000000000000000000, 0.0000000000000000000 ) ) ;
#256 = ORIENTED_EDGE ( 'NONE', *, *, #79, .F. ) ;
#257 = DIRECTION ( 'NONE',  ( -1.000000000000000000, -0.0000000000000000000, -0.0000000000000000000 ) ) ;
#258 = ORIENTED_EDGE ( 'NONE', *, *, #236, .T. ) ;
#259 = EDGE_LOOP ( 'NONE', ( #39 ) ) ;
#260 = EDGE_LOOP ( 'NONE', ( #207 ) ) ;
#261 = DIRECTION ( 'NONE',  ( 0.0000000000000000000, 0.0000000000000000000, -1.000000000000000000 ) ) ;
#262 = LOCAL_TIME ( 16, 28, 9.000000000000000000, #166 ) ;
#263 = CLOSED_SHELL ( 'NONE', ( #83, #378, #110, #358, #246, #143, #88, #348, #380, #213, #267, #171, #376 ) ) ;
#264 = CARTESIAN_POINT ( 'NONE',  ( -6.240157480314961100, 6.220472440944882400, 0.0000000000000000000 ) ) ;
#265 = VERTEX_POINT ( 'NONE', #71 ) ;
#266 = DIRECTION ( 'NONE',  ( -1.000000000000000000, -0.0000000000000000000, -0.0000000000000000000 ) ) ;
#267 = ADVANCED_FACE ( 'NONE', ( #87, #13, #234 ), #41, .T. ) ;
#268 = APPROVAL_ROLE ( '' ) ;
#269 = DIRECTION ( 'NONE',  ( 0.0000000000000000000, 0.0000000000000000000, -1.000000000000000000 ) ) ;
#270 = EDGE_LOOP ( 'NONE', ( #362 ) ) ;
#271 = EDGE_CURVE ( 'NONE', #180, #180, #361, .T. ) ;
#272 = CARTESIAN_POINT ( 'NONE',  ( -3.385826771653543500, 0.0000000000000000000, -2.165354330708661600 ) ) ;
#273 = PERSON_AND_ORGANIZATION ( #294, #119 ) ;
#274 = CIRCLE ( 'NONE', #189, 1.771653543307086600 ) ;
#275 = CARTESIAN_POINT ( 'NONE',  ( -3.582677165354330600, 2.362204724409448600, -5.785541829082086400E-016 ) ) ;
#276 = EDGE_LOOP ( 'NONE', ( #224 ) ) ;
#277 = ORIENTED_EDGE ( 'NONE', *, *, #297, .T. ) ;
#278 = ORIENTED_EDGE ( 'NONE', *, *, #103, .F. ) ;
#279 = VERTEX_POINT ( 'NONE', #158 ) ;
#280 = FACE_OUTER_BOUND ( 'NONE', #220, .T. ) ;
#281 = CONICAL_SURFACE ( 'NONE', #199, 2.362204724409450400, 0.7853981633974427300 ) ;
#282 = ORIENTED_EDGE ( 'NONE', *, *, #103, .T. ) ;
#283 = UNCERTAINTY_MEASURE_WITH_UNIT (LENGTH_MEASURE( 1.000000000000000100E-005 ), #164, 'distance_accuracy_value', 'NONE');
#284 = DIRECTION ( 'NONE',  ( 1.000000000000000000, 0.0000000000000000000, -2.449212707645250500E-016 ) ) ;
#285 = PERSON_AND_ORGANIZATION ( #294, #119 ) ;
#286 = EDGE_LOOP ( 'NONE', ( #256 ) ) ;
#287 = CARTESIAN_POINT ( 'NONE',  ( 0.0000000000000000000, 0.0000000000000000000, 0.0000000000000000000 ) ) ;
#288 = EDGE_CURVE ( 'NONE', #84, #84, #274, .T. ) ;
#289 = ORIENTED_EDGE ( 'NONE', *, *, #367, .F. ) ;
#290 = AXIS2_PLACEMENT_3D ( 'NONE', #20, #21, #5 ) ;
#291 = CARTESIAN_POINT ( 'NONE',  ( -8.897637795275590700, 0.0000000000000000000, 0.0000000000000000000 ) ) ;
#292 = CYLINDRICAL_SURFACE ( 'NONE', #185, 2.362204724409448600 ) ;
#293 = DATE_TIME_ROLE ( 'creation_date' ) ;
#294 = PERSON ( 'UNSPECIFIED', 'UNSPECIFIED', 'UNSPECIFIED', ('UNSPECIFIED'), ('UNSPECIFIED'), ('UNSPECIFIED') ) ;
#295 = FACE_OUTER_BOUND ( 'NONE', #23, .T. ) ;
#296 = PLANE ( 'NONE',  #351 ) ;
#297 = EDGE_CURVE ( 'NONE', #239, #239, #55, .T. ) ;
#298 = CIRCLE ( 'NONE', #339, 2.165354330708661600 ) ;
#299 = CARTESIAN_POINT ( 'NONE',  ( -1.515748031496064300, 4.724409448818896400, -2.362204724409448600 ) ) ;
#300 = CARTESIAN_POINT ( 'NONE',  ( -6.240157480314961100, 0.0000000000000000000, -1.771653543307086600 ) ) ;
#301 = DIRECTION ( 'NONE',  ( 0.0000000000000000000, -0.0000000000000000000, 1.000000000000000000 ) ) ;
#302 = PERSON_AND_ORGANIZATION_ROLE ( 'classification_officer' ) ;
#303 = AXIS2_PLACEMENT_3D ( 'NONE', #156, #255, #284 ) ;
#304 = FACE_OUTER_BOUND ( 'NONE', #64, .T. ) ;
#305 = FACE_OUTER_BOUND ( 'NONE', #382, .T. ) ;
#306 = APPROVAL_STATUS ( 'not_yet_approved' ) ;
#307 = AXIS2_PLACEMENT_3D ( 'NONE', #371, #321, #343 ) ;
#308 = ORIENTED_EDGE ( 'NONE', *, *, #336, .T. ) ;
#309 = APPROVAL ( #306, 'UNSPECIFIED' ) ;
#310 = APPROVAL_DATE_TIME ( #116, #309 ) ;
#311 = VERTEX_POINT ( 'NONE', #132 ) ;
#312 = LOCAL_TIME ( 16, 28, 9.000000000000000000, #332 ) ;
#313 = DIRECTION ( 'NONE',  ( 0.0000000000000000000, 2.312964634635741500E-016, -1.000000000000000000 ) ) ;
#314 = VERTEX_POINT ( 'NONE', #45 ) ;
#315 = CONICAL_SURFACE ( 'NONE', #100, 2.362204724409449100, 0.7853981633974482800 ) ;
#316 = DIRECTION ( 'NONE',  ( 1.000000000000000000, 0.0000000000000000000, 0.0000000000000000000 ) ) ;
#317 = AXIS2_PLACEMENT_3D ( 'NONE', #366, #257, #340 ) ;
#318 = DIRECTION ( 'NONE',  ( 1.000000000000000000, 0.0000000000000000000, 0.0000000000000000000 ) ) ;
#319 = APPROVAL_STATUS ( 'not_yet_approved' ) ;
#320 = PRODUCT ( '581245040', '581245040', '', ( #331 ) ) ;
#321 = DIRECTION ( 'NONE',  ( 1.000000000000000000, 0.0000000000000000000, 0.0000000000000000000 ) ) ;
#322 = APPLICATION_CONTEXT ( 'configuration controlled 3d designs of mechanical parts and assemblies' ) ;
#323 = EDGE_CURVE ( 'NONE', #118, #118, #138, .T. ) ;
#324 = FACE_OUTER_BOUND ( 'NONE', #86, .T. ) ;
#325 = CARTESIAN_POINT ( 'NONE',  ( -2.696850393700788800, 3.543307086614172700, 1.771653543307085700 ) ) ;
#326 = CC_DESIGN_APPROVAL ( #309, ( #7 ) ) ;
#327 = DIRECTION ( 'NONE',  ( 0.0000000000000000000, 0.0000000000000000000, 1.000000000000000000 ) ) ;
#328 = COORDINATED_UNIVERSAL_TIME_OFFSET ( 5, 0, .BEHIND. ) ;
#329 = EDGE_CURVE ( 'NONE', #279, #314, #96, .T. ) ;
#330 = CARTESIAN_POINT ( 'NONE',  ( 0.0000000000000000000, 1.082677165354330800, -2.651706671662626400E-016 ) ) ;
#331 = MECHANICAL_CONTEXT ( 'NONE', #322, 'mechanical' ) ;
#332 = COORDINATED_UNIVERSAL_TIME_OFFSET ( 5, 0, .BEHIND. ) ;
#333 = EDGE_CURVE ( 'NONE', #311, #111, #250, .T. ) ;
#334 = AXIS2_PLACEMENT_3D ( 'NONE', #74, #266, #381 ) ;
#335 = FACE_OUTER_BOUND ( 'NONE', #150, .T. ) ;
#336 = EDGE_CURVE ( 'NONE', #170, #170, #350, .T. ) ;
#337 = PERSON_AND_ORGANIZATION ( #294, #119 ) ;
#338 = CARTESIAN_POINT ( 'NONE',  ( -6.240157480314961100, 1.084824920504545200E-016, 1.771653543307086600 ) ) ;
#339 = AXIS2_PLACEMENT_3D ( 'NONE', #287, #137, #42 ) ;
#340 = DIRECTION ( 'NONE',  ( 0.0000000000000000000, 0.0000000000000000000, -1.000000000000000000 ) ) ;
#341 = FACE_BOUND ( 'NONE', #260, .T. ) ;
#342 = EDGE_LOOP ( 'NONE', ( #57 ) ) ;
#343 = DIRECTION ( 'NONE',  ( 0.0000000000000000000, 0.0000000000000000000, -1.000000000000000000 ) ) ;
#344 = CARTESIAN_POINT ( 'NONE',  ( -3.385826771653543500, 0.0000000000000000000, 0.0000000000000000000 ) ) ;
#345 = VERTEX_POINT ( 'NONE', #162 ) ;
#346 = DIRECTION ( 'NONE',  ( 0.0000000000000000000, 1.000000000000000000, 0.0000000000000000000 ) ) ;
#347 = LENGTH_MEASURE_WITH_UNIT ( LENGTH_MEASURE( 0.02539999999999999900 ), #70 );
#348 = ADVANCED_FACE ( 'NONE', ( #174, #335 ), #315, .T. ) ;
#349 = FACE_BOUND ( 'NONE', #15, .T. ) ;
#350 = CIRCLE ( 'NONE', #223, 1.771653543307086600 ) ;
#351 = AXIS2_PLACEMENT_3D ( 'NONE', #40, #346, #301 ) ;
#352 = PLANE ( 'NONE',  #193 ) ;
#353 = PERSON_AND_ORGANIZATION ( #294, #119 ) ;
#354 = DIRECTION ( 'NONE',  ( 0.0000000000000000000, 0.0000000000000000000, -1.000000000000000000 ) ) ;
#355 = EDGE_CURVE ( 'NONE', #75, #75, #190, .T. ) ;
#356 =( NAMED_UNIT ( * ) SI_UNIT ( $, .STERADIAN. ) SOLID_ANGLE_UNIT ( ) );
#357 = EDGE_LOOP ( 'NONE', ( #161, #218 ) ) ;
#358 = ADVANCED_FACE ( 'NONE', ( #304, #305 ), #26, .F. ) ;
#359 = DATE_AND_TIME ( #187, #241 ) ;
#360 = PERSON_AND_ORGANIZATION_ROLE ( 'design_supplier' ) ;
#361 = CIRCLE ( 'NONE', #290, 2.165354330708661600 ) ;
#362 = ORIENTED_EDGE ( 'NONE', *, *, #129, .T. ) ;
#363 = DIMENSIONAL_EXPONENTS ( 1.000000000000000000, 0.0000000000000000000, 0.0000000000000000000, 0.0000000000000000000, 0.0000000000000000000, 0.0000000000000000000, 0.0000000000000000000 ) ;
#364 = FACE_BOUND ( 'NONE', #211, .T. ) ;
#365 = FACE_OUTER_BOUND ( 'NONE', #121, .T. ) ;
#366 = CARTESIAN_POINT ( 'NONE',  ( -9.094488188976377800, 0.0000000000000000000, 0.0000000000000000000 ) ) ;
#367 = EDGE_CURVE ( 'NONE', #265, #265, #198, .T. ) ;
#368 = ORIENTED_EDGE ( 'NONE', *, *, #355, .T. ) ;
#369 = APPROVAL_PERSON_ORGANIZATION ( #225, #29, #120 ) ;
#370 = AXIS2_PLACEMENT_3D ( 'NONE', #330, #131, #374 ) ;
#371 = CARTESIAN_POINT ( 'NONE',  ( 0.03937007874015748000, 0.0000000000000000000, 0.0000000000000000000 ) ) ;
#372 = DIRECTION ( 'NONE',  ( 1.000000000000000000, 0.0000000000000000000, 0.0000000000000000000 ) ) ;
#373 = EDGE_CURVE ( 'NONE', #111, #311, #91, .T. ) ;
#374 = DIRECTION ( 'NONE',  ( 0.0000000000000000000, 0.0000000000000000000, -1.000000000000000000 ) ) ;
#375 = AXIS2_PLACEMENT_3D ( 'NONE', #344, #112, #94 ) ;
#376 = ADVANCED_FACE ( 'NONE', ( #191, #177 ), #292, .T. ) ;
#377 = CARTESIAN_POINT ( 'NONE',  ( -6.240157480314961100, 0.0000000000000000000, -1.771653543307086600 ) ) ;
#378 = ADVANCED_FACE ( 'NONE', ( #365, #128 ), #352, .T. ) ;
#379 = PLANE ( 'NONE',  #370 ) ;
#380 = ADVANCED_FACE ( 'NONE', ( #179, #4 ), #253, .T. ) ;
#381 = DIRECTION ( 'NONE',  ( 0.0000000000000000000, 1.000000000000000000, -2.449212707644750100E-016 ) ) ;
#382 = EDGE_LOOP ( 'NONE', ( #147 ) ) ;
#383 = APPROVAL_DATE_TIME ( #359, #44 ) ;
#384 = CARTESIAN_POINT ( 'NONE',  ( 0.0000000000000000000, 0.0000000000000000000, -1.771653543307086600 ) ) ;
#385 = EDGE_LOOP ( 'NONE', ( #53 ) ) ;
#386 = PERSON_AND_ORGANIZATION ( #294, #119 ) ;
ENDSEC;
END-ISO-10303-21;
