ISO-10303-21;
HEADER;
FILE_DESCRIPTION (( 'STEP AP203' ),
    '1' );
FILE_NAME ('581229660.STEP',
    '2017-07-31T15:33:30',
    ( '' ),
    ( '' ),
    'SwSTEP 2.0',
    'SolidWorks 2017',
    '' );
FILE_SCHEMA (( 'CONFIG_CONTROL_DESIGN' ));
ENDSEC;

DATA;
#1 = EDGE_CURVE ( 'NONE', #149, #149, #201, .T. ) ;
#2 = EDGE_LOOP ( 'NONE', ( #87 ) ) ;
#3 = CLOSED_SHELL ( 'NONE', ( #63, #128, #225, #48, #90, #50, #190, #101 ) ) ;
#4 = EDGE_LOOP ( 'NONE', ( #251 ) ) ;
#5 = PERSON_AND_ORGANIZATION_ROLE ( 'design_supplier' ) ;
#6 =( LENGTH_UNIT ( ) NAMED_UNIT ( * ) SI_UNIT ( $, .METRE. ) );
#7 = EDGE_CURVE ( 'NONE', #200, #200, #137, .T. ) ;
#8 = PERSON ( 'UNSPECIFIED', 'UNSPECIFIED', 'UNSPECIFIED', ('UNSPECIFIED'), ('UNSPECIFIED'), ('UNSPECIFIED') ) ;
#9 = CARTESIAN_POINT ( 'NONE',  ( 9.527559055118111100, 3.937007874015748100, -9.642569715136812600E-016 ) ) ;
#10 = CARTESIAN_POINT ( 'NONE',  ( 3.523622047244094400, 0.0000000000000000000, 0.0000000000000000000 ) ) ;
#11 = ORIENTED_EDGE ( 'NONE', *, *, #222, .T. ) ;
#12 = DIRECTION ( 'NONE',  ( 1.000000000000000000, 0.0000000000000000000, 0.0000000000000000000 ) ) ;
#13 = PERSON_AND_ORGANIZATION_ROLE ( 'classification_officer' ) ;
#14 = CARTESIAN_POINT ( 'NONE',  ( 7.047244094488188900, 0.0000000000000000000, -5.074803149606300000 ) ) ;
#15 = CC_DESIGN_APPROVAL ( #84, ( #80 ) ) ;
#16 = CARTESIAN_POINT ( 'NONE',  ( 0.0000000000000000000, 0.0000000000000000000, -6.200787401574803700 ) ) ;
#17 = APPROVAL_PERSON_ORGANIZATION ( #96, #84, #202 ) ;
#18 = AXIS2_PLACEMENT_3D ( 'NONE', #185, #36, #216 ) ;
#19 = CALENDAR_DATE ( 2017, 31, 7 ) ;
#20 = PRODUCT_DEFINITION_FORMATION_WITH_SPECIFIED_SOURCE ( 'ANY', '', #215, .NOT_KNOWN. ) ;
#21 = DATE_AND_TIME ( #19, #142 ) ;
#22 = PERSON_AND_ORGANIZATION ( #8, #95 ) ;
#23 = AXIS2_PLACEMENT_3D ( 'NONE', #143, #120, #182 ) ;
#24 = CARTESIAN_POINT ( 'NONE',  ( 0.0000000000000000000, 0.0000000000000000000, 0.0000000000000000000 ) ) ;
#25 = APPROVAL_ROLE ( '' ) ;
#26 = DIRECTION ( 'NONE',  ( 0.0000000000000000000, 0.0000000000000000000, -1.000000000000000000 ) ) ;
#27 = ORIENTED_EDGE ( 'NONE', *, *, #75, .T. ) ;
#28 = AXIS2_PLACEMENT_3D ( 'NONE', #144, #103, #176 ) ;
#29 = PERSON_AND_ORGANIZATION_ROLE ( 'design_owner' ) ;
#30 = DIMENSIONAL_EXPONENTS ( 1.000000000000000000, 0.0000000000000000000, 0.0000000000000000000, 0.0000000000000000000, 0.0000000000000000000, 0.0000000000000000000, 0.0000000000000000000 ) ;
#31 = DIRECTION ( 'NONE',  ( 0.0000000000000000000, 1.000000000000000000, -2.449212707644750600E-016 ) ) ;
#32 = EDGE_LOOP ( 'NONE', ( #11 ) ) ;
#33 = CIRCLE ( 'NONE', #165, 3.937007874015748100 ) ;
#34 = EDGE_LOOP ( 'NONE', ( #243 ) ) ;
#35 = EDGE_LOOP ( 'NONE', ( #81 ) ) ;
#36 = DIRECTION ( 'NONE',  ( -1.000000000000000000, -0.0000000000000000000, -0.0000000000000000000 ) ) ;
#37 = AXIS2_PLACEMENT_3D ( 'NONE', #134, #74, #132 ) ;
#38 = EDGE_LOOP ( 'NONE', ( #214 ) ) ;
#39 = ORIENTED_EDGE ( 'NONE', *, *, #68, .T. ) ;
#40 = PRODUCT_RELATED_PRODUCT_CATEGORY ( 'detail', '', ( #215 ) ) ;
#41 = AXIS2_PLACEMENT_3D ( 'NONE', #67, #208, #223 ) ;
#42 = CC_DESIGN_DATE_AND_TIME_ASSIGNMENT ( #98, #230, ( #186 ) ) ;
#43 = DIRECTION ( 'NONE',  ( 1.000000000000000000, 0.0000000000000000000, 0.0000000000000000000 ) ) ;
#44 = CIRCLE ( 'NONE', #18, 5.074803149606300000 ) ;
#45 = FACE_OUTER_BOUND ( 'NONE', #61, .T. ) ;
#46 = DIRECTION ( 'NONE',  ( 1.000000000000000000, 0.0000000000000000000, 0.0000000000000000000 ) ) ;
#47 = CC_DESIGN_PERSON_AND_ORGANIZATION_ASSIGNMENT ( #212, #76, ( #80 ) ) ;
#48 = ADVANCED_FACE ( 'NONE', ( #97, #99 ), #146, .F. ) ;
#49 = CARTESIAN_POINT ( 'NONE',  ( 7.047244094488188900, 0.0000000000000000000, -6.200787401574803700 ) ) ;
#50 = ADVANCED_FACE ( 'NONE', ( #197, #238 ), #220, .F. ) ;
#51 = CALENDAR_DATE ( 2017, 31, 7 ) ;
#52 = EDGE_LOOP ( 'NONE', ( #136 ) ) ;
#53 = CIRCLE ( 'NONE', #28, 6.200787401574803700 ) ;
#54 = CARTESIAN_POINT ( 'NONE',  ( 14.76377952755905600, 0.0000000000000000000, -3.220472440944881900 ) ) ;
#55 = AXIS2_PLACEMENT_3D ( 'NONE', #162, #79, #234 ) ;
#56 = CIRCLE ( 'NONE', #41, 3.937007874015748100 ) ;
#57 = AXIS2_PLACEMENT_3D ( 'NONE', #10, #240, #106 ) ;
#58 = UNCERTAINTY_MEASURE_WITH_UNIT (LENGTH_MEASURE( 1.000000000000000100E-005 ), #189, 'distance_accuracy_value', 'NONE');
#59 = CC_DESIGN_DATE_AND_TIME_ASSIGNMENT ( #73, #226, ( #80 ) ) ;
#60 = PLANE ( 'NONE',  #55 ) ;
#61 = EDGE_LOOP ( 'NONE', ( #245 ) ) ;
#62 = COORDINATED_UNIVERSAL_TIME_OFFSET ( 5, 0, .BEHIND. ) ;
#63 = ADVANCED_FACE ( 'NONE', ( #114, #173 ), #229, .T. ) ;
#64 = CARTESIAN_POINT ( 'NONE',  ( 0.0000000000000000000, 0.0000000000000000000, -5.074803149606300000 ) ) ;
#65 =( GEOMETRIC_REPRESENTATION_CONTEXT ( 3 ) GLOBAL_UNCERTAINTY_ASSIGNED_CONTEXT ( ( #58 ) ) GLOBAL_UNIT_ASSIGNED_CONTEXT ( ( #189, #164, #117 ) ) REPRESENTATION_CONTEXT ( 'NONE', 'WORKASPACE' ) );
#66 = FACE_BOUND ( 'NONE', #151, .T. ) ;
#67 = CARTESIAN_POINT ( 'NONE',  ( 9.527559055118111100, 0.0000000000000000000, 0.0000000000000000000 ) ) ;
#68 = EDGE_CURVE ( 'NONE', #166, #166, #44, .T. ) ;
#69 = PERSON_AND_ORGANIZATION ( #8, #95 ) ;
#70 = DIRECTION ( 'NONE',  ( 0.0000000000000000000, 0.0000000000000000000, -1.000000000000000000 ) ) ;
#71 = CARTESIAN_POINT ( 'NONE',  ( 12.14566929133858300, 0.0000000000000000000, 0.0000000000000000000 ) ) ;
#72 = AXIS2_PLACEMENT_3D ( 'NONE', #71, #154, #26 ) ;
#73 = DATE_AND_TIME ( #187, #115 ) ;
#74 = DIRECTION ( 'NONE',  ( 1.000000000000000000, 0.0000000000000000000, 0.0000000000000000000 ) ) ;
#75 = EDGE_CURVE ( 'NONE', #227, #227, #33, .T. ) ;
#76 = PERSON_AND_ORGANIZATION_ROLE ( 'creator' ) ;
#77 = DATE_AND_TIME ( #51, #247 ) ;
#78 = APPROVAL_DATE_TIME ( #77, #244 ) ;
#79 = DIRECTION ( 'NONE',  ( -1.000000000000000000, 0.0000000000000000000, 0.0000000000000000000 ) ) ;
#80 = PRODUCT_DEFINITION ( 'UNKNOWN', '', #20, #221 ) ;
#81 = ORIENTED_EDGE ( 'NONE', *, *, #179, .T. ) ;
#82 = APPLICATION_CONTEXT ( 'configuration controlled 3d designs of mechanical parts and assemblies' ) ;
#83 = DIRECTION ( 'NONE',  ( 0.0000000000000000000, 0.0000000000000000000, 1.000000000000000000 ) ) ;
#84 = APPROVAL ( #152, 'UNSPECIFIED' ) ;
#85 = CARTESIAN_POINT ( 'NONE',  ( 14.76377952755905600, 3.578740157480315300, -8.765095871059370500E-016 ) ) ;
#86 = APPROVAL_PERSON_ORGANIZATION ( #22, #252, #104 ) ;
#87 = ORIENTED_EDGE ( 'NONE', *, *, #179, .F. ) ;
#88 = FACE_OUTER_BOUND ( 'NONE', #126, .T. ) ;
#89 = APPROVAL_STATUS ( 'not_yet_approved' ) ;
#90 = ADVANCED_FACE ( 'NONE', ( #242, #45 ), #194, .T. ) ;
#91 = EDGE_LOOP ( 'NONE', ( #27 ) ) ;
#92 = FACE_OUTER_BOUND ( 'NONE', #35, .T. ) ;
#93 = CARTESIAN_POINT ( 'NONE',  ( 0.0000000000000000000, 0.0000000000000000000, 0.0000000000000000000 ) ) ;
#94 = DIRECTION ( 'NONE',  ( -1.000000000000000000, -0.0000000000000000000, -0.0000000000000000000 ) ) ;
#95 = ORGANIZATION ( 'UNSPECIFIED', 'UNSPECIFIED', '' ) ;
#96 = PERSON_AND_ORGANIZATION ( #8, #95 ) ;
#97 = FACE_OUTER_BOUND ( 'NONE', #100, .T. ) ;
#98 = DATE_AND_TIME ( #145, #127 ) ;
#99 = FACE_OUTER_BOUND ( 'NONE', #207, .T. ) ;
#100 = EDGE_LOOP ( 'NONE', ( #123 ) ) ;
#101 = ADVANCED_FACE ( 'NONE', ( #204, #92 ), #141, .F. ) ;
#102 = DIRECTION ( 'NONE',  ( 1.000000000000000000, 0.0000000000000000000, 0.0000000000000000000 ) ) ;
#103 = DIRECTION ( 'NONE',  ( -1.000000000000000000, -0.0000000000000000000, -0.0000000000000000000 ) ) ;
#104 = APPROVAL_ROLE ( '' ) ;
#105 = EDGE_LOOP ( 'NONE', ( #239 ) ) ;
#106 = DIRECTION ( 'NONE',  ( 0.0000000000000000000, 0.0000000000000000000, -1.000000000000000000 ) ) ;
#107 = EDGE_CURVE ( 'NONE', #192, #192, #53, .T. ) ;
#108 = VERTEX_POINT ( 'NONE', #111 ) ;
#109 = FACE_BOUND ( 'NONE', #32, .T. ) ;
#110 = COORDINATED_UNIVERSAL_TIME_OFFSET ( 5, 0, .BEHIND. ) ;
#111 = CARTESIAN_POINT ( 'NONE',  ( 9.527559055118111100, 3.220472440944880600, -7.887622026981910700E-016 ) ) ;
#112 = PRODUCT_DEFINITION_SHAPE ( 'NONE', 'NONE',  #80 ) ;
#113 = AXIS2_PLACEMENT_3D ( 'NONE', #85, #46, #184 ) ;
#114 = FACE_OUTER_BOUND ( 'NONE', #38, .T. ) ;
#115 = LOCAL_TIME ( 11, 33, 30.00000000000000000, #178 ) ;
#116 = PERSON_AND_ORGANIZATION ( #8, #95 ) ;
#117 =( NAMED_UNIT ( * ) SI_UNIT ( $, .STERADIAN. ) SOLID_ANGLE_UNIT ( ) );
#118 = CARTESIAN_POINT ( 'NONE',  ( 12.14566929133858300, 0.0000000000000000000, 0.0000000000000000000 ) ) ;
#119 = FACE_OUTER_BOUND ( 'NONE', #105, .T. ) ;
#120 = DIRECTION ( 'NONE',  ( -1.000000000000000000, -0.0000000000000000000, -0.0000000000000000000 ) ) ;
#121 = CC_DESIGN_APPROVAL ( #252, ( #20 ) ) ;
#122 = PERSON_AND_ORGANIZATION ( #8, #95 ) ;
#123 = ORIENTED_EDGE ( 'NONE', *, *, #68, .F. ) ;
#124 = FACE_BOUND ( 'NONE', #52, .T. ) ;
#125 = EDGE_CURVE ( 'NONE', #218, #218, #209, .T. ) ;
#126 = EDGE_LOOP ( 'NONE', ( #219 ) ) ;
#127 = LOCAL_TIME ( 11, 33, 30.00000000000000000, #110 ) ;
#128 = ADVANCED_FACE ( 'NONE', ( #153, #124 ), #60, .T. ) ;
#129 = COORDINATED_UNIVERSAL_TIME_OFFSET ( 5, 0, .BEHIND. ) ;
#130 = APPROVAL_DATE_TIME ( #21, #252 ) ;
#131 = LENGTH_MEASURE_WITH_UNIT ( LENGTH_MEASURE( 0.02539999999999999900 ), #6 );
#132 = DIRECTION ( 'NONE',  ( 0.0000000000000000000, 0.0000000000000000000, -1.000000000000000000 ) ) ;
#133 = CARTESIAN_POINT ( 'NONE',  ( 7.047244094488188900, 0.0000000000000000000, 0.0000000000000000000 ) ) ;
#134 = CARTESIAN_POINT ( 'NONE',  ( 0.0000000000000000000, 0.0000000000000000000, 0.0000000000000000000 ) ) ;
#135 = CARTESIAN_POINT ( 'NONE',  ( 14.76377952755905600, 0.0000000000000000000, -3.937007874015748100 ) ) ;
#136 = ORIENTED_EDGE ( 'NONE', *, *, #1, .T. ) ;
#137 = CIRCLE ( 'NONE', #23, 3.220472440944881900 ) ;
#138 = AXIS2_PLACEMENT_3D ( 'NONE', #193, #43, #168 ) ;
#139 = AXIS2_PLACEMENT_3D ( 'NONE', #133, #171, #160 ) ;
#140 = AXIS2_PLACEMENT_3D ( 'NONE', #148, #169, #199 ) ;
#141 = CYLINDRICAL_SURFACE ( 'NONE', #175, 3.220472440944881900 ) ;
#142 = LOCAL_TIME ( 11, 33, 30.00000000000000000, #232 ) ;
#143 = CARTESIAN_POINT ( 'NONE',  ( 14.76377952755905600, 0.0000000000000000000, 0.0000000000000000000 ) ) ;
#144 = CARTESIAN_POINT ( 'NONE',  ( 7.047244094488188900, 0.0000000000000000000, 0.0000000000000000000 ) ) ;
#145 = CALENDAR_DATE ( 2017, 31, 7 ) ;
#146 = CYLINDRICAL_SURFACE ( 'NONE', #57, 5.074803149606300000 ) ;
#147 = APPLICATION_CONTEXT ( 'configuration controlled 3d designs of mechanical parts and assemblies' ) ;
#148 = CARTESIAN_POINT ( 'NONE',  ( 7.047244094488188900, 0.0000000000000000000, 0.0000000000000000000 ) ) ;
#149 = VERTEX_POINT ( 'NONE', #64 ) ;
#150 = CC_DESIGN_PERSON_AND_ORGANIZATION_ASSIGNMENT ( #158, #13, ( #186 ) ) ;
#151 = EDGE_LOOP ( 'NONE', ( #213 ) ) ;
#152 = APPROVAL_STATUS ( 'not_yet_approved' ) ;
#153 = FACE_OUTER_BOUND ( 'NONE', #4, .T. ) ;
#154 = DIRECTION ( 'NONE',  ( 1.000000000000000000, 0.0000000000000000000, 0.0000000000000000000 ) ) ;
#155 = PERSON_AND_ORGANIZATION_ROLE ( 'creator' ) ;
#156 = MANIFOLD_SOLID_BREP ( '1', #3 ) ;
#157 = APPROVAL_DATE_TIME ( #249, #84 ) ;
#158 = PERSON_AND_ORGANIZATION ( #8, #95 ) ;
#159 = APPROVAL_PERSON_ORGANIZATION ( #205, #244, #25 ) ;
#160 = DIRECTION ( 'NONE',  ( 0.0000000000000000000, 0.0000000000000000000, 1.000000000000000000 ) ) ;
#161 = MECHANICAL_CONTEXT ( 'NONE', #82, 'mechanical' ) ;
#162 = CARTESIAN_POINT ( 'NONE',  ( 0.0000000000000000000, 5.637795275590550900, -1.380815983207594800E-015 ) ) ;
#163 = CONICAL_SURFACE ( 'NONE', #140, 6.200787401574804600, 0.7397866663985721600 ) ;
#164 =( NAMED_UNIT ( * ) PLANE_ANGLE_UNIT ( ) SI_UNIT ( $, .RADIAN. ) );
#165 = AXIS2_PLACEMENT_3D ( 'NONE', #210, #94, #170 ) ;
#166 = VERTEX_POINT ( 'NONE', #14 ) ;
#167 = CARTESIAN_POINT ( 'NONE',  ( 9.527559055118111100, 0.0000000000000000000, 0.0000000000000000000 ) ) ;
#168 = DIRECTION ( 'NONE',  ( 0.0000000000000000000, 0.0000000000000000000, -1.000000000000000000 ) ) ;
#169 = DIRECTION ( 'NONE',  ( -1.000000000000000000, -0.0000000000000000000, 0.0000000000000000000 ) ) ;
#170 = DIRECTION ( 'NONE',  ( 0.0000000000000000000, 0.0000000000000000000, -1.000000000000000000 ) ) ;
#171 = DIRECTION ( 'NONE',  ( -1.000000000000000000, -0.0000000000000000000, 0.0000000000000000000 ) ) ;
#172 = LOCAL_TIME ( 11, 33, 30.00000000000000000, #62 ) ;
#173 = FACE_OUTER_BOUND ( 'NONE', #34, .T. ) ;
#174 = CC_DESIGN_PERSON_AND_ORGANIZATION_ASSIGNMENT ( #122, #29, ( #215 ) ) ;
#175 = AXIS2_PLACEMENT_3D ( 'NONE', #118, #12, #250 ) ;
#176 = DIRECTION ( 'NONE',  ( 0.0000000000000000000, 0.0000000000000000000, -1.000000000000000000 ) ) ;
#177 = APPROVAL_STATUS ( 'not_yet_approved' ) ;
#178 = COORDINATED_UNIVERSAL_TIME_OFFSET ( 5, 0, .BEHIND. ) ;
#179 = EDGE_CURVE ( 'NONE', #108, #108, #183, .T. ) ;
#180 = ADVANCED_BREP_SHAPE_REPRESENTATION ( '581229660', ( #156, #228 ), #65 ) ;
#181 = DIRECTION ( 'NONE',  ( -1.000000000000000000, 0.0000000000000000000, 0.0000000000000000000 ) ) ;
#182 = DIRECTION ( 'NONE',  ( 0.0000000000000000000, 0.0000000000000000000, -1.000000000000000000 ) ) ;
#183 = CIRCLE ( 'NONE', #233, 3.220472440944880600 ) ;
#184 = DIRECTION ( 'NONE',  ( 0.0000000000000000000, 0.0000000000000000000, -1.000000000000000000 ) ) ;
#185 = CARTESIAN_POINT ( 'NONE',  ( 7.047244094488188900, 0.0000000000000000000, 0.0000000000000000000 ) ) ;
#186 = SECURITY_CLASSIFICATION ( '', '', #188 ) ;
#187 = CALENDAR_DATE ( 2017, 31, 7 ) ;
#188 = SECURITY_CLASSIFICATION_LEVEL ( 'unclassified' ) ;
#189 =( CONVERSION_BASED_UNIT ( 'INCH', #131 ) LENGTH_UNIT ( ) NAMED_UNIT ( #30 ) );
#190 = ADVANCED_FACE ( 'NONE', ( #66, #119 ), #196, .T. ) ;
#191 = APPLICATION_PROTOCOL_DEFINITION ( 'international standard', 'config_control_design', 1994, #82 ) ;
#192 = VERTEX_POINT ( 'NONE', #49 ) ;
#193 = CARTESIAN_POINT ( 'NONE',  ( 3.523622047244094400, 0.0000000000000000000, 0.0000000000000000000 ) ) ;
#194 = CYLINDRICAL_SURFACE ( 'NONE', #72, 3.937007874015748100 ) ;
#195 = AXIS2_PLACEMENT_3D ( 'NONE', #93, #224, #70 ) ;
#196 = PLANE ( 'NONE',  #113 ) ;
#197 = FACE_BOUND ( 'NONE', #2, .T. ) ;
#198 = CC_DESIGN_APPROVAL ( #244, ( #186 ) ) ;
#199 = DIRECTION ( 'NONE',  ( 0.0000000000000000000, 0.0000000000000000000, 1.000000000000000000 ) ) ;
#200 = VERTEX_POINT ( 'NONE', #54 ) ;
#201 = CIRCLE ( 'NONE', #195, 5.074803149606300000 ) ;
#202 = APPROVAL_ROLE ( '' ) ;
#203 = CC_DESIGN_PERSON_AND_ORGANIZATION_ASSIGNMENT ( #69, #5, ( #20 ) ) ;
#204 = FACE_OUTER_BOUND ( 'NONE', #246, .T. ) ;
#205 = PERSON_AND_ORGANIZATION ( #8, #95 ) ;
#206 = ORIENTED_EDGE ( 'NONE', *, *, #1, .F. ) ;
#207 = EDGE_LOOP ( 'NONE', ( #206 ) ) ;
#208 = DIRECTION ( 'NONE',  ( -1.000000000000000000, 0.0000000000000000000, 0.0000000000000000000 ) ) ;
#209 = CIRCLE ( 'NONE', #37, 6.200787401574803700 ) ;
#210 = CARTESIAN_POINT ( 'NONE',  ( 14.76377952755905600, 0.0000000000000000000, 0.0000000000000000000 ) ) ;
#211 = EDGE_LOOP ( 'NONE', ( #39 ) ) ;
#212 = PERSON_AND_ORGANIZATION ( #8, #95 ) ;
#213 = ORIENTED_EDGE ( 'NONE', *, *, #7, .T. ) ;
#214 = ORIENTED_EDGE ( 'NONE', *, *, #107, .T. ) ;
#215 = PRODUCT ( '581229660', '581229660', '', ( #161 ) ) ;
#216 = DIRECTION ( 'NONE',  ( 0.0000000000000000000, 0.0000000000000000000, -1.000000000000000000 ) ) ;
#217 = CC_DESIGN_SECURITY_CLASSIFICATION ( #186, ( #20 ) ) ;
#218 = VERTEX_POINT ( 'NONE', #16 ) ;
#219 = ORIENTED_EDGE ( 'NONE', *, *, #107, .F. ) ;
#220 = CONICAL_SURFACE ( 'NONE', #139, 5.074803149606300000, 0.6419755569637952700 ) ;
#221 = DESIGN_CONTEXT ( 'detailed design', #147, 'design' ) ;
#222 = EDGE_CURVE ( 'NONE', #241, #241, #56, .T. ) ;
#223 = DIRECTION ( 'NONE',  ( 0.0000000000000000000, 1.000000000000000000, -2.449212707644750600E-016 ) ) ;
#224 = DIRECTION ( 'NONE',  ( 1.000000000000000000, 0.0000000000000000000, 0.0000000000000000000 ) ) ;
#225 = ADVANCED_FACE ( 'NONE', ( #109, #88 ), #163, .T. ) ;
#226 = DATE_TIME_ROLE ( 'creation_date' ) ;
#227 = VERTEX_POINT ( 'NONE', #135 ) ;
#228 = AXIS2_PLACEMENT_3D ( 'NONE', #24, #83, #102 ) ;
#229 = CYLINDRICAL_SURFACE ( 'NONE', #138, 6.200787401574803700 ) ;
#230 = DATE_TIME_ROLE ( 'classification_date' ) ;
#231 = ORIENTED_EDGE ( 'NONE', *, *, #7, .F. ) ;
#232 = COORDINATED_UNIVERSAL_TIME_OFFSET ( 5, 0, .BEHIND. ) ;
#233 = AXIS2_PLACEMENT_3D ( 'NONE', #167, #181, #31 ) ;
#234 = DIRECTION ( 'NONE',  ( 0.0000000000000000000, 0.0000000000000000000, 1.000000000000000000 ) ) ;
#235 = SHAPE_DEFINITION_REPRESENTATION ( #112, #180 ) ;
#236 = CALENDAR_DATE ( 2017, 31, 7 ) ;
#237 = APPLICATION_PROTOCOL_DEFINITION ( 'international standard', 'config_control_design', 1994, #147 ) ;
#238 = FACE_OUTER_BOUND ( 'NONE', #211, .T. ) ;
#239 = ORIENTED_EDGE ( 'NONE', *, *, #75, .F. ) ;
#240 = DIRECTION ( 'NONE',  ( 1.000000000000000000, 0.0000000000000000000, 0.0000000000000000000 ) ) ;
#241 = VERTEX_POINT ( 'NONE', #9 ) ;
#242 = FACE_OUTER_BOUND ( 'NONE', #91, .T. ) ;
#243 = ORIENTED_EDGE ( 'NONE', *, *, #125, .T. ) ;
#244 = APPROVAL ( #177, 'UNSPECIFIED' ) ;
#245 = ORIENTED_EDGE ( 'NONE', *, *, #222, .F. ) ;
#246 = EDGE_LOOP ( 'NONE', ( #231 ) ) ;
#247 = LOCAL_TIME ( 11, 33, 30.00000000000000000, #129 ) ;
#248 = CC_DESIGN_PERSON_AND_ORGANIZATION_ASSIGNMENT ( #116, #155, ( #20 ) ) ;
#249 = DATE_AND_TIME ( #236, #172 ) ;
#250 = DIRECTION ( 'NONE',  ( 0.0000000000000000000, 0.0000000000000000000, -1.000000000000000000 ) ) ;
#251 = ORIENTED_EDGE ( 'NONE', *, *, #125, .F. ) ;
#252 = APPROVAL ( #89, 'UNSPECIFIED' ) ;
ENDSEC;
END-ISO-10303-21;
