ISO-10303-21;
HEADER;
FILE_DESCRIPTION (( 'STEP AP203' ),
    '1' );
FILE_NAME ('581229628.STEP',
    '2017-07-31T15:31:50',
    ( '' ),
    ( '' ),
    'SwSTEP 2.0',
    'SolidWorks 2017',
    '' );
FILE_SCHEMA (( 'CONFIG_CONTROL_DESIGN' ));
ENDSEC;

DATA;
#1 = DIRECTION ( 'NONE',  ( -1.000000000000000000, -0.0000000000000000000, 0.0000000000000000000 ) ) ;
#2 = PRODUCT ( '581229628', '581229628', '', ( #141 ) ) ;
#3 =( GEOMETRIC_REPRESENTATION_CONTEXT ( 3 ) GLOBAL_UNCERTAINTY_ASSIGNED_CONTEXT ( ( #97 ) ) GLOBAL_UNIT_ASSIGNED_CONTEXT ( ( #168, #124, #160 ) ) REPRESENTATION_CONTEXT ( 'NONE', 'WORKASPACE' ) );
#4 = CARTESIAN_POINT ( 'NONE',  ( 6.102362204724409300, 0.0000000000000000000, 0.0000000000000000000 ) ) ;
#5 = EDGE_CURVE ( 'NONE', #109, #109, #179, .T. ) ;
#6 = CARTESIAN_POINT ( 'NONE',  ( 6.102362204724409300, 2.731847993664263200E-016, 0.0000000000000000000 ) ) ;
#7 = CARTESIAN_POINT ( 'NONE',  ( 12.36220472440945000, 3.937007874015748100, -5.516923087892986600E-048 ) ) ;
#8 = COORDINATED_UNIVERSAL_TIME_OFFSET ( 5, 0, .BEHIND. ) ;
#9 = EDGE_LOOP ( 'NONE', ( #65 ) ) ;
#10 = AXIS2_PLACEMENT_3D ( 'NONE', #6, #207, #240 ) ;
#11 = SECURITY_CLASSIFICATION_LEVEL ( 'unclassified' ) ;
#12 = DIRECTION ( 'NONE',  ( 1.000000000000000000, -4.525749909300000200E-017, 0.0000000000000000000 ) ) ;
#13 = FACE_OUTER_BOUND ( 'NONE', #59, .T. ) ;
#14 = DIRECTION ( 'NONE',  ( 1.000000000000000000, 0.0000000000000000000, 0.0000000000000000000 ) ) ;
#15 = DIRECTION ( 'NONE',  ( 4.525749909300000200E-017, 1.000000000000000000, 0.0000000000000000000 ) ) ;
#16 = COORDINATED_UNIVERSAL_TIME_OFFSET ( 5, 0, .BEHIND. ) ;
#17 = APPROVAL_PERSON_ORGANIZATION ( #70, #162, #218 ) ;
#18 = CARTESIAN_POINT ( 'NONE',  ( 6.102362204724409300, 4.921259842519685200, 0.0000000000000000000 ) ) ;
#19 = CARTESIAN_POINT ( 'NONE',  ( 2.227239128592519700E-016, 4.921259842519686100, 0.0000000000000000000 ) ) ;
#20 = PRODUCT_RELATED_PRODUCT_CATEGORY ( 'detail', '', ( #2 ) ) ;
#21 = PERSON_AND_ORGANIZATION ( #167, #234 ) ;
#22 = CC_DESIGN_DATE_AND_TIME_ASSIGNMENT ( #125, #202, ( #201 ) ) ;
#23 = PERSON_AND_ORGANIZATION ( #167, #234 ) ;
#24 = CARTESIAN_POINT ( 'NONE',  ( 7.440944881889763900, 3.937007874015748100, -9.642569715136812600E-016 ) ) ;
#25 = CIRCLE ( 'NONE', #28, 4.921259842519685200 ) ;
#26 = ORIENTED_EDGE ( 'NONE', *, *, #43, .F. ) ;
#27 = CIRCLE ( 'NONE', #232, 4.027559055118110200 ) ;
#28 = AXIS2_PLACEMENT_3D ( 'NONE', #46, #151, #34 ) ;
#29 = ADVANCED_FACE ( 'NONE', ( #127, #81 ), #222, .F. ) ;
#30 = MANIFOLD_SOLID_BREP ( '1', #188 ) ;
#31 = AXIS2_PLACEMENT_3D ( 'NONE', #216, #214, #91 ) ;
#32 = ORIENTED_EDGE ( 'NONE', *, *, #170, .T. ) ;
#33 = PLANE ( 'NONE',  #54 ) ;
#34 = DIRECTION ( 'NONE',  ( 4.525749909300000200E-017, 1.000000000000000000, 0.0000000000000000000 ) ) ;
#35 = CC_DESIGN_DATE_AND_TIME_ASSIGNMENT ( #251, #248, ( #107 ) ) ;
#36 = DIRECTION ( 'NONE',  ( -1.000000000000000000, 4.525749909300000200E-017, 2.242077542919709900E-048 ) ) ;
#37 = EDGE_LOOP ( 'NONE', ( #172 ) ) ;
#38 = AXIS2_PLACEMENT_3D ( 'NONE', #71, #12, #120 ) ;
#39 = PERSON_AND_ORGANIZATION_ROLE ( 'creator' ) ;
#40 = CARTESIAN_POINT ( 'NONE',  ( 12.36220472440945000, 0.0000000000000000000, 0.0000000000000000000 ) ) ;
#41 = AXIS2_PLACEMENT_3D ( 'NONE', #231, #115, #93 ) ;
#42 = AXIS2_PLACEMENT_3D ( 'NONE', #143, #126, #14 ) ;
#43 = EDGE_CURVE ( 'NONE', #117, #117, #80, .T. ) ;
#44 = CALENDAR_DATE ( 2017, 31, 7 ) ;
#45 = VERTEX_POINT ( 'NONE', #131 ) ;
#46 = CARTESIAN_POINT ( 'NONE',  ( 0.0000000000000000000, 5.594824691024409800E-016, 0.0000000000000000000 ) ) ;
#47 = ORIENTED_EDGE ( 'NONE', *, *, #194, .T. ) ;
#48 = AXIS2_PLACEMENT_3D ( 'NONE', #147, #156, #217 ) ;
#49 = ADVANCED_FACE ( 'NONE', ( #75, #228 ), #137, .F. ) ;
#50 = APPROVAL_STATUS ( 'not_yet_approved' ) ;
#51 = ORIENTED_EDGE ( 'NONE', *, *, #194, .F. ) ;
#52 = CC_DESIGN_SECURITY_CLASSIFICATION ( #107, ( #185 ) ) ;
#53 = COORDINATED_UNIVERSAL_TIME_OFFSET ( 5, 0, .BEHIND. ) ;
#54 = AXIS2_PLACEMENT_3D ( 'NONE', #66, #113, #135 ) ;
#55 = CIRCLE ( 'NONE', #111, 3.937007874015748100 ) ;
#56 = EDGE_LOOP ( 'NONE', ( #51 ) ) ;
#57 = CIRCLE ( 'NONE', #104, 3.937007874015748100 ) ;
#58 = CC_DESIGN_PERSON_AND_ORGANIZATION_ASSIGNMENT ( #23, #138, ( #107 ) ) ;
#59 = EDGE_LOOP ( 'NONE', ( #243 ) ) ;
#60 = EDGE_LOOP ( 'NONE', ( #187 ) ) ;
#61 = DIRECTION ( 'NONE',  ( -1.000000000000000000, 4.525749909300000200E-017, -0.0000000000000000000 ) ) ;
#62 = EDGE_LOOP ( 'NONE', ( #47 ) ) ;
#63 = PERSON_AND_ORGANIZATION ( #167, #234 ) ;
#64 = FACE_OUTER_BOUND ( 'NONE', #83, .T. ) ;
#65 = ORIENTED_EDGE ( 'NONE', *, *, #170, .F. ) ;
#66 = CARTESIAN_POINT ( 'NONE',  ( 12.36220472440945000, 3.578740157480315300, -8.765095871059370500E-016 ) ) ;
#67 = DIRECTION ( 'NONE',  ( -1.000000000000000000, 2.714835750306919900E-048, 1.108452418947969900E-032 ) ) ;
#68 = DIRECTION ( 'NONE',  ( -1.000000000000000000, 4.525749909300000200E-017, -0.0000000000000000000 ) ) ;
#69 = ORIENTED_EDGE ( 'NONE', *, *, #134, .T. ) ;
#70 = PERSON_AND_ORGANIZATION ( #167, #234 ) ;
#71 = CARTESIAN_POINT ( 'NONE',  ( 9.901574803149607400, 1.113619564296259900E-016, 0.0000000000000000000 ) ) ;
#72 = PERSON_AND_ORGANIZATION_ROLE ( 'creator' ) ;
#73 = EDGE_LOOP ( 'NONE', ( #74 ) ) ;
#74 = ORIENTED_EDGE ( 'NONE', *, *, #158, .T. ) ;
#75 = FACE_OUTER_BOUND ( 'NONE', #56, .T. ) ;
#76 = CARTESIAN_POINT ( 'NONE',  ( 7.440944881889763900, 2.227239128592520200E-016, 1.185661692765938200E-048 ) ) ;
#77 = EDGE_LOOP ( 'NONE', ( #26 ) ) ;
#78 = FACE_BOUND ( 'NONE', #73, .T. ) ;
#79 = EDGE_LOOP ( 'NONE', ( #198 ) ) ;
#80 = CIRCLE ( 'NONE', #242, 4.921259842519684300 ) ;
#81 = FACE_OUTER_BOUND ( 'NONE', #37, .T. ) ;
#82 = PRODUCT_DEFINITION_SHAPE ( 'NONE', 'NONE',  #201 ) ;
#83 = EDGE_LOOP ( 'NONE', ( #89 ) ) ;
#84 = CC_DESIGN_PERSON_AND_ORGANIZATION_ASSIGNMENT ( #229, #249, ( #2 ) ) ;
#85 = DIRECTION ( 'NONE',  ( 1.000000000000000000, -4.525749909300000200E-017, 0.0000000000000000000 ) ) ;
#86 = AXIS2_PLACEMENT_3D ( 'NONE', #4, #1, #142 ) ;
#87 = ORIENTED_EDGE ( 'NONE', *, *, #5, .F. ) ;
#88 = FACE_OUTER_BOUND ( 'NONE', #77, .T. ) ;
#89 = ORIENTED_EDGE ( 'NONE', *, *, #105, .F. ) ;
#90 = ORIENTED_EDGE ( 'NONE', *, *, #166, .F. ) ;
#91 = DIRECTION ( 'NONE',  ( 0.0000000000000000000, 1.000000000000000000, 0.0000000000000000000 ) ) ;
#92 = DATE_AND_TIME ( #181, #180 ) ;
#93 = DIRECTION ( 'NONE',  ( 0.0000000000000000000, 1.000000000000000000, 0.0000000000000000000 ) ) ;
#94 = FACE_OUTER_BOUND ( 'NONE', #60, .T. ) ;
#95 = DIRECTION ( 'NONE',  ( 0.0000000000000000000, 1.000000000000000000, 0.0000000000000000000 ) ) ;
#96 = APPROVAL_STATUS ( 'not_yet_approved' ) ;
#97 = UNCERTAINTY_MEASURE_WITH_UNIT (LENGTH_MEASURE( 1.000000000000000100E-005 ), #168, 'distance_accuracy_value', 'NONE');
#98 = FACE_OUTER_BOUND ( 'NONE', #9, .T. ) ;
#99 = EDGE_LOOP ( 'NONE', ( #90 ) ) ;
#100 = CC_DESIGN_APPROVAL ( #162, ( #201 ) ) ;
#101 = SHAPE_DEFINITION_REPRESENTATION ( #82, #169 ) ;
#102 = CC_DESIGN_APPROVAL ( #132, ( #185 ) ) ;
#103 = VERTEX_POINT ( 'NONE', #19 ) ;
#104 = AXIS2_PLACEMENT_3D ( 'NONE', #76, #221, #171 ) ;
#105 = EDGE_CURVE ( 'NONE', #150, #150, #55, .T. ) ;
#106 = PERSON_AND_ORGANIZATION ( #167, #234 ) ;
#107 = SECURITY_CLASSIFICATION ( '', '', #11 ) ;
#108 = ADVANCED_FACE ( 'NONE', ( #94, #98 ), #237, .T. ) ;
#109 = VERTEX_POINT ( 'NONE', #133 ) ;
#110 = CARTESIAN_POINT ( 'NONE',  ( 1.822772502840118200E-016, 4.027559055118111100, 0.0000000000000000000 ) ) ;
#111 = AXIS2_PLACEMENT_3D ( 'NONE', #153, #36, #178 ) ;
#112 = DATE_AND_TIME ( #165, #154 ) ;
#113 = DIRECTION ( 'NONE',  ( 1.000000000000000000, -2.714835750306929900E-048, -1.108452418947969900E-032 ) ) ;
#114 = DIRECTION ( 'NONE',  ( 0.0000000000000000000, 1.000000000000000000, 0.0000000000000000000 ) ) ;
#115 = DIRECTION ( 'NONE',  ( 1.000000000000000000, -4.525749909300000200E-017, 0.0000000000000000000 ) ) ;
#116 = FACE_BOUND ( 'NONE', #220, .T. ) ;
#117 = VERTEX_POINT ( 'NONE', #18 ) ;
#118 = DIRECTION ( 'NONE',  ( 0.0000000000000000000, 1.000000000000000000, 0.0000000000000000000 ) ) ;
#119 = APPROVAL_PERSON_ORGANIZATION ( #106, #206, #233 ) ;
#120 = DIRECTION ( 'NONE',  ( 0.0000000000000000000, 1.000000000000000000, 0.0000000000000000000 ) ) ;
#121 = APPROVAL_STATUS ( 'not_yet_approved' ) ;
#122 = APPLICATION_CONTEXT ( 'configuration controlled 3d designs of mechanical parts and assemblies' ) ;
#123 = LENGTH_MEASURE_WITH_UNIT ( LENGTH_MEASURE( 0.02539999999999999900 ), #204 );
#124 =( NAMED_UNIT ( * ) PLANE_ANGLE_UNIT ( ) SI_UNIT ( $, .RADIAN. ) );
#125 = DATE_AND_TIME ( #245, #195 ) ;
#126 = DIRECTION ( 'NONE',  ( 0.0000000000000000000, 0.0000000000000000000, 1.000000000000000000 ) ) ;
#127 = FACE_OUTER_BOUND ( 'NONE', #239, .T. ) ;
#128 = ADVANCED_FACE ( 'NONE', ( #197, #149 ), #175, .T. ) ;
#129 = COORDINATED_UNIVERSAL_TIME_OFFSET ( 5, 0, .BEHIND. ) ;
#130 = CARTESIAN_POINT ( 'NONE',  ( 0.0000000000000000000, 5.594824691024409800E-016, 0.0000000000000000000 ) ) ;
#131 = CARTESIAN_POINT ( 'NONE',  ( 12.36220472440945000, 3.220472440944881900, 0.0000000000000000000 ) ) ;
#132 = APPROVAL ( #50, 'UNSPECIFIED' ) ;
#133 = CARTESIAN_POINT ( 'NONE',  ( 7.440944881889763900, 3.220472440944881900, -7.887622026981911700E-016 ) ) ;
#134 = EDGE_CURVE ( 'NONE', #103, #103, #25, .T. ) ;
#135 = DIRECTION ( 'NONE',  ( -1.108452418947969900E-032, 0.0000000000000000000, -1.000000000000000000 ) ) ;
#136 = AXIS2_PLACEMENT_3D ( 'NONE', #40, #139, #118 ) ;
#137 = CYLINDRICAL_SURFACE ( 'NONE', #41, 4.027559055118110200 ) ;
#138 = PERSON_AND_ORGANIZATION_ROLE ( 'classification_officer' ) ;
#139 = DIRECTION ( 'NONE',  ( -1.000000000000000000, 4.525749909300000200E-017, -0.0000000000000000000 ) ) ;
#140 = AXIS2_PLACEMENT_3D ( 'NONE', #199, #67, #213 ) ;
#141 = MECHANICAL_CONTEXT ( 'NONE', #161, 'mechanical' ) ;
#142 = DIRECTION ( 'NONE',  ( 0.0000000000000000000, 0.0000000000000000000, 1.000000000000000000 ) ) ;
#143 = CARTESIAN_POINT ( 'NONE',  ( 0.0000000000000000000, 0.0000000000000000000, 0.0000000000000000000 ) ) ;
#144 = DIMENSIONAL_EXPONENTS ( 1.000000000000000000, 0.0000000000000000000, 0.0000000000000000000, 0.0000000000000000000, 0.0000000000000000000, 0.0000000000000000000, 0.0000000000000000000 ) ;
#145 = FACE_OUTER_BOUND ( 'NONE', #62, .T. ) ;
#146 = ADVANCED_FACE ( 'NONE', ( #78, #64 ), #33, .T. ) ;
#147 = CARTESIAN_POINT ( 'NONE',  ( 7.440944881889763900, 2.227239128592520700E-016, 8.854993610189842500E-049 ) ) ;
#148 = FACE_BOUND ( 'NONE', #208, .T. ) ;
#149 = FACE_BOUND ( 'NONE', #196, .T. ) ;
#150 = VERTEX_POINT ( 'NONE', #7 ) ;
#151 = DIRECTION ( 'NONE',  ( 1.000000000000000000, -4.525749909300000200E-017, 0.0000000000000000000 ) ) ;
#152 = APPROVAL_DATE_TIME ( #92, #206 ) ;
#153 = CARTESIAN_POINT ( 'NONE',  ( 12.36220472440945000, 1.516480271171051900E-032, -5.516923087892986600E-048 ) ) ;
#154 = LOCAL_TIME ( 11, 31, 50.00000000000000000, #53 ) ;
#155 = VERTEX_POINT ( 'NONE', #238 ) ;
#156 = DIRECTION ( 'NONE',  ( -1.000000000000000000, 4.525749909300000200E-017, -1.323040221757780000E-048 ) ) ;
#157 = LOCAL_TIME ( 11, 31, 50.00000000000000000, #203 ) ;
#158 = EDGE_CURVE ( 'NONE', #45, #45, #223, .T. ) ;
#159 = PERSON_AND_ORGANIZATION_ROLE ( 'design_supplier' ) ;
#160 =( NAMED_UNIT ( * ) SI_UNIT ( $, .STERADIAN. ) SOLID_ANGLE_UNIT ( ) );
#161 = APPLICATION_CONTEXT ( 'configuration controlled 3d designs of mechanical parts and assemblies' ) ;
#162 = APPROVAL ( #96, 'UNSPECIFIED' ) ;
#163 = ADVANCED_FACE ( 'NONE', ( #148, #145 ), #209, .F. ) ;
#164 = CARTESIAN_POINT ( 'NONE',  ( 3.051181102362204600, 4.213936431297047300E-016, 0.0000000000000000000 ) ) ;
#165 = CALENDAR_DATE ( 2017, 31, 7 ) ;
#166 = EDGE_CURVE ( 'NONE', #173, #173, #191, .T. ) ;
#167 = PERSON ( 'UNSPECIFIED', 'UNSPECIFIED', 'UNSPECIFIED', ('UNSPECIFIED'), ('UNSPECIFIED'), ('UNSPECIFIED') ) ;
#168 =( CONVERSION_BASED_UNIT ( 'INCH', #123 ) LENGTH_UNIT ( ) NAMED_UNIT ( #144 ) );
#169 = ADVANCED_BREP_SHAPE_REPRESENTATION ( '581229628', ( #30, #42 ), #3 ) ;
#170 = EDGE_CURVE ( 'NONE', #224, #224, #57, .T. ) ;
#171 = DIRECTION ( 'NONE',  ( 0.0000000000000000000, 1.000000000000000000, -2.449212707644750600E-016 ) ) ;
#172 = ORIENTED_EDGE ( 'NONE', *, *, #5, .T. ) ;
#173 = VERTEX_POINT ( 'NONE', #110 ) ;
#174 = ORIENTED_EDGE ( 'NONE', *, *, #166, .T. ) ;
#175 = PLANE ( 'NONE',  #140 ) ;
#176 = CC_DESIGN_PERSON_AND_ORGANIZATION_ASSIGNMENT ( #63, #72, ( #201 ) ) ;
#177 = CC_DESIGN_APPROVAL ( #206, ( #107 ) ) ;
#178 = DIRECTION ( 'NONE',  ( 0.0000000000000000000, 1.000000000000000000, 0.0000000000000000000 ) ) ;
#179 = CIRCLE ( 'NONE', #48, 3.220472440944881900 ) ;
#180 = LOCAL_TIME ( 11, 31, 50.00000000000000000, #8 ) ;
#181 = CALENDAR_DATE ( 2017, 31, 7 ) ;
#182 = APPROVAL_ROLE ( '' ) ;
#183 = DIRECTION ( 'NONE',  ( 0.0000000000000000000, 1.000000000000000000, 0.0000000000000000000 ) ) ;
#184 = APPLICATION_PROTOCOL_DEFINITION ( 'international standard', 'config_control_design', 1994, #161 ) ;
#185 = PRODUCT_DEFINITION_FORMATION_WITH_SPECIFIED_SOURCE ( 'ANY', '', #2, .NOT_KNOWN. ) ;
#186 = PERSON_AND_ORGANIZATION ( #167, #234 ) ;
#187 = ORIENTED_EDGE ( 'NONE', *, *, #105, .T. ) ;
#188 = CLOSED_SHELL ( 'NONE', ( #210, #128, #250, #49, #108, #163, #146, #29 ) ) ;
#189 = LOCAL_TIME ( 11, 31, 50.00000000000000000, #129 ) ;
#190 = CARTESIAN_POINT ( 'NONE',  ( 6.102362204724409300, 2.833048171569684800E-016, 0.0000000000000000000 ) ) ;
#191 = CIRCLE ( 'NONE', #227, 4.027559055118110200 ) ;
#192 = APPROVAL_DATE_TIME ( #219, #162 ) ;
#193 = APPROVAL_DATE_TIME ( #112, #132 ) ;
#194 = EDGE_CURVE ( 'NONE', #155, #155, #27, .T. ) ;
#195 = LOCAL_TIME ( 11, 31, 50.00000000000000000, #16 ) ;
#196 = EDGE_LOOP ( 'NONE', ( #174 ) ) ;
#197 = FACE_OUTER_BOUND ( 'NONE', #79, .T. ) ;
#198 = ORIENTED_EDGE ( 'NONE', *, *, #134, .F. ) ;
#199 = CARTESIAN_POINT ( 'NONE',  ( 0.0000000000000000000, 4.474409448818898100, -1.095878048125299400E-015 ) ) ;
#200 = CYLINDRICAL_SURFACE ( 'NONE', #212, 4.921259842519684300 ) ;
#201 = PRODUCT_DEFINITION ( 'UNKNOWN', '', #185, #236 ) ;
#202 = DATE_TIME_ROLE ( 'creation_date' ) ;
#203 = COORDINATED_UNIVERSAL_TIME_OFFSET ( 5, 0, .BEHIND. ) ;
#204 =( LENGTH_UNIT ( ) NAMED_UNIT ( * ) SI_UNIT ( $, .METRE. ) );
#205 = EDGE_LOOP ( 'NONE', ( #69 ) ) ;
#206 = APPROVAL ( #121, 'UNSPECIFIED' ) ;
#207 = DIRECTION ( 'NONE',  ( -1.000000000000000000, -0.0000000000000000000, 0.0000000000000000000 ) ) ;
#208 = EDGE_LOOP ( 'NONE', ( #87 ) ) ;
#209 = CONICAL_SURFACE ( 'NONE', #10, 4.027559055118110200, 0.5425793241259908600 ) ;
#210 = ADVANCED_FACE ( 'NONE', ( #13, #241 ), #200, .T. ) ;
#211 = PERSON_AND_ORGANIZATION ( #167, #234 ) ;
#212 = AXIS2_PLACEMENT_3D ( 'NONE', #164, #225, #95 ) ;
#213 = DIRECTION ( 'NONE',  ( 1.108452418947969900E-032, 0.0000000000000000000, 1.000000000000000000 ) ) ;
#214 = DIRECTION ( 'NONE',  ( 1.000000000000000000, -4.525749909300000200E-017, -2.242077542919709900E-048 ) ) ;
#215 = CC_DESIGN_PERSON_AND_ORGANIZATION_ASSIGNMENT ( #211, #39, ( #185 ) ) ;
#216 = CARTESIAN_POINT ( 'NONE',  ( 9.901574803149607400, 1.113619564296259900E-016, 0.0000000000000000000 ) ) ;
#217 = DIRECTION ( 'NONE',  ( 0.0000000000000000000, 1.000000000000000000, -2.449212707644750100E-016 ) ) ;
#218 = APPROVAL_ROLE ( '' ) ;
#219 = DATE_AND_TIME ( #230, #189 ) ;
#220 = EDGE_LOOP ( 'NONE', ( #32 ) ) ;
#221 = DIRECTION ( 'NONE',  ( -1.000000000000000000, 4.525749909300000200E-017, -1.771518058603230100E-048 ) ) ;
#222 = CYLINDRICAL_SURFACE ( 'NONE', #38, 3.220472440944881900 ) ;
#223 = CIRCLE ( 'NONE', #136, 3.220472440944881900 ) ;
#224 = VERTEX_POINT ( 'NONE', #24 ) ;
#225 = DIRECTION ( 'NONE',  ( 1.000000000000000000, -4.525749909300000200E-017, 0.0000000000000000000 ) ) ;
#226 = CC_DESIGN_PERSON_AND_ORGANIZATION_ASSIGNMENT ( #186, #159, ( #185 ) ) ;
#227 = AXIS2_PLACEMENT_3D ( 'NONE', #130, #85, #15 ) ;
#228 = FACE_OUTER_BOUND ( 'NONE', #99, .T. ) ;
#229 = PERSON_AND_ORGANIZATION ( #167, #234 ) ;
#230 = CALENDAR_DATE ( 2017, 31, 7 ) ;
#231 = CARTESIAN_POINT ( 'NONE',  ( 3.051181102362204600, 4.213936431297047300E-016, 0.0000000000000000000 ) ) ;
#232 = AXIS2_PLACEMENT_3D ( 'NONE', #190, #61, #183 ) ;
#233 = APPROVAL_ROLE ( '' ) ;
#234 = ORGANIZATION ( 'UNSPECIFIED', 'UNSPECIFIED', '' ) ;
#235 = APPLICATION_PROTOCOL_DEFINITION ( 'international standard', 'config_control_design', 1994, #122 ) ;
#236 = DESIGN_CONTEXT ( 'detailed design', #122, 'design' ) ;
#237 = CYLINDRICAL_SURFACE ( 'NONE', #31, 3.937007874015748100 ) ;
#238 = CARTESIAN_POINT ( 'NONE',  ( 6.102362204724409300, 4.027559055118111100, 0.0000000000000000000 ) ) ;
#239 = EDGE_LOOP ( 'NONE', ( #252 ) ) ;
#240 = DIRECTION ( 'NONE',  ( 0.0000000000000000000, 0.0000000000000000000, 1.000000000000000000 ) ) ;
#241 = FACE_OUTER_BOUND ( 'NONE', #205, .T. ) ;
#242 = AXIS2_PLACEMENT_3D ( 'NONE', #244, #68, #114 ) ;
#243 = ORIENTED_EDGE ( 'NONE', *, *, #43, .T. ) ;
#244 = CARTESIAN_POINT ( 'NONE',  ( 6.102362204724409300, 2.833048171569684800E-016, 0.0000000000000000000 ) ) ;
#245 = CALENDAR_DATE ( 2017, 31, 7 ) ;
#246 = CONICAL_SURFACE ( 'NONE', #86, 4.921259842519685200, 0.6340227196634219400 ) ;
#247 = APPROVAL_PERSON_ORGANIZATION ( #21, #132, #182 ) ;
#248 = DATE_TIME_ROLE ( 'classification_date' ) ;
#249 = PERSON_AND_ORGANIZATION_ROLE ( 'design_owner' ) ;
#250 = ADVANCED_FACE ( 'NONE', ( #116, #88 ), #246, .T. ) ;
#251 = DATE_AND_TIME ( #44, #157 ) ;
#252 = ORIENTED_EDGE ( 'NONE', *, *, #158, .F. ) ;
ENDSEC;
END-ISO-10303-21;
