ISO-10303-21;
HEADER;
FILE_DESCRIPTION (( 'STEP AP203' ),
    '1' );
FILE_NAME ('581229627.STEP',
    '2017-07-31T15:25:41',
    ( '' ),
    ( '' ),
    'SwSTEP 2.0',
    'SolidWorks 2017',
    '' );
FILE_SCHEMA (( 'CONFIG_CONTROL_DESIGN' ));
ENDSEC;

DATA;
#1 = VERTEX_POINT ( 'NONE', #193 ) ;
#2 = ORGANIZATION ( 'UNSPECIFIED', 'UNSPECIFIED', '' ) ;
#3 = CC_DESIGN_PERSON_AND_ORGANIZATION_ASSIGNMENT ( #92, #69, ( #151 ) ) ;
#4 = DIRECTION ( 'NONE',  ( 0.0000000000000000000, 1.000000000000000000, 0.0000000000000000000 ) ) ;
#5 = PERSON_AND_ORGANIZATION ( #130, #2 ) ;
#6 = MANIFOLD_SOLID_BREP ( '1', #53 ) ;
#7 = DIRECTION ( 'NONE',  ( 0.0000000000000000000, 1.000000000000000000, 0.0000000000000000000 ) ) ;
#8 = ADVANCED_BREP_SHAPE_REPRESENTATION ( '581229627', ( #6, #243 ), #41 ) ;
#9 = DATE_AND_TIME ( #26, #126 ) ;
#10 = COORDINATED_UNIVERSAL_TIME_OFFSET ( 5, 0, .BEHIND. ) ;
#11 = EDGE_LOOP ( 'NONE', ( #236 ) ) ;
#12 = AXIS2_PLACEMENT_3D ( 'NONE', #141, #216, #31 ) ;
#13 = CALENDAR_DATE ( 2017, 31, 7 ) ;
#14 = COORDINATED_UNIVERSAL_TIME_OFFSET ( 5, 0, .BEHIND. ) ;
#15 = EDGE_LOOP ( 'NONE', ( #251 ) ) ;
#16 = CC_DESIGN_APPROVAL ( #150, ( #102 ) ) ;
#17 = DIRECTION ( 'NONE',  ( 0.0000000000000000000, 1.000000000000000000, -2.449212707644750100E-016 ) ) ;
#18 = CARTESIAN_POINT ( 'NONE',  ( 7.913385826771652800, 2.013424172247637600E-016, 0.0000000000000000000 ) ) ;
#19 = DIMENSIONAL_EXPONENTS ( 1.000000000000000000, 0.0000000000000000000, 0.0000000000000000000, 0.0000000000000000000, 0.0000000000000000000, 0.0000000000000000000, 0.0000000000000000000 ) ;
#20 = DIRECTION ( 'NONE',  ( 1.108452418947969900E-032, 0.0000000000000000000, 1.000000000000000000 ) ) ;
#21 = DIRECTION ( 'NONE',  ( -1.000000000000000000, 4.525749909300000200E-017, -0.0000000000000000000 ) ) ;
#22 = PRODUCT_DEFINITION ( 'UNKNOWN', '', #151, #156 ) ;
#23 = ADVANCED_FACE ( 'NONE', ( #161, #234 ), #45, .T. ) ;
#24 = EDGE_LOOP ( 'NONE', ( #231 ) ) ;
#25 = CC_DESIGN_APPROVAL ( #109, ( #151 ) ) ;
#26 = CALENDAR_DATE ( 2017, 31, 7 ) ;
#27 = CARTESIAN_POINT ( 'NONE',  ( 7.913385826771652800, 3.149606299212598200, -7.714055772109448500E-016 ) ) ;
#28 = DIRECTION ( 'NONE',  ( 0.0000000000000000000, 0.0000000000000000000, 1.000000000000000000 ) ) ;
#29 = EDGE_LOOP ( 'NONE', ( #39 ) ) ;
#30 = CARTESIAN_POINT ( 'NONE',  ( 6.102362204724409300, 2.833048171569684800E-016, 0.0000000000000000000 ) ) ;
#31 = DIRECTION ( 'NONE',  ( 4.525749909300000200E-017, 1.000000000000000000, 0.0000000000000000000 ) ) ;
#32 = PERSON_AND_ORGANIZATION_ROLE ( 'classification_officer' ) ;
#33 = FACE_BOUND ( 'NONE', #112, .T. ) ;
#34 = PERSON_AND_ORGANIZATION ( #130, #2 ) ;
#35 = DIRECTION ( 'NONE',  ( 1.000000000000000000, -4.525749909300000200E-017, -5.254869241218060200E-048 ) ) ;
#36 = ORIENTED_EDGE ( 'NONE', *, *, #178, .F. ) ;
#37 = DIRECTION ( 'NONE',  ( 0.0000000000000000000, 1.000000000000000000, 0.0000000000000000000 ) ) ;
#38 = CIRCLE ( 'NONE', #249, 3.149606299212598200 ) ;
#39 = ORIENTED_EDGE ( 'NONE', *, *, #81, .F. ) ;
#40 = FACE_OUTER_BOUND ( 'NONE', #164, .T. ) ;
#41 =( GEOMETRIC_REPRESENTATION_CONTEXT ( 3 ) GLOBAL_UNCERTAINTY_ASSIGNED_CONTEXT ( ( #110 ) ) GLOBAL_UNIT_ASSIGNED_CONTEXT ( ( #175, #124, #71 ) ) REPRESENTATION_CONTEXT ( 'NONE', 'WORKASPACE' ) );
#42 = COORDINATED_UNIVERSAL_TIME_OFFSET ( 5, 0, .BEHIND. ) ;
#43 = APPROVAL_DATE_TIME ( #106, #56 ) ;
#44 = CARTESIAN_POINT ( 'NONE',  ( 0.0000000000000000000, 4.474409448818898100, -1.095878048125299400E-015 ) ) ;
#45 = CYLINDRICAL_SURFACE ( 'NONE', #145, 3.149606299212598600 ) ;
#46 = APPLICATION_PROTOCOL_DEFINITION ( 'international standard', 'config_control_design', 1994, #89 ) ;
#47 = EDGE_CURVE ( 'NONE', #160, #160, #179, .T. ) ;
#48 = FACE_OUTER_BOUND ( 'NONE', #54, .T. ) ;
#49 = SHAPE_DEFINITION_REPRESENTATION ( #182, #8 ) ;
#50 = EDGE_LOOP ( 'NONE', ( #133 ) ) ;
#51 = EDGE_CURVE ( 'NONE', #200, #200, #246, .T. ) ;
#52 = CIRCLE ( 'NONE', #194, 4.027559055118110200 ) ;
#53 = CLOSED_SHELL ( 'NONE', ( #73, #183, #242, #235, #23, #60, #128, #119 ) ) ;
#54 = EDGE_LOOP ( 'NONE', ( #75 ) ) ;
#55 = DATE_AND_TIME ( #88, #176 ) ;
#56 = APPROVAL ( #62, 'UNSPECIFIED' ) ;
#57 = DATE_AND_TIME ( #80, #191 ) ;
#58 = CIRCLE ( 'NONE', #116, 2.574803149606300000 ) ;
#59 = CIRCLE ( 'NONE', #65, 4.027559055118110200 ) ;
#60 = ADVANCED_FACE ( 'NONE', ( #189, #158 ), #99, .F. ) ;
#61 = ORIENTED_EDGE ( 'NONE', *, *, #107, .F. ) ;
#62 = APPROVAL_STATUS ( 'not_yet_approved' ) ;
#63 = APPROVAL_STATUS ( 'not_yet_approved' ) ;
#64 = APPLICATION_PROTOCOL_DEFINITION ( 'international standard', 'config_control_design', 1994, #122 ) ;
#65 = AXIS2_PLACEMENT_3D ( 'NONE', #184, #97, #82 ) ;
#66 = CONICAL_SURFACE ( 'NONE', #86, 4.921259842519685200, 0.7744095947147149300 ) ;
#67 = CARTESIAN_POINT ( 'NONE',  ( 7.913385826771654600, 2.574803149606298600, -6.306240593699473800E-016 ) ) ;
#68 = ORIENTED_EDGE ( 'NONE', *, *, #178, .T. ) ;
#69 = PERSON_AND_ORGANIZATION_ROLE ( 'design_supplier' ) ;
#70 = LENGTH_MEASURE_WITH_UNIT ( LENGTH_MEASURE( 0.02539999999999999900 ), #96 );
#71 =( NAMED_UNIT ( * ) SI_UNIT ( $, .STERADIAN. ) SOLID_ANGLE_UNIT ( ) );
#72 = APPROVAL_PERSON_ORGANIZATION ( #117, #109, #104 ) ;
#73 = ADVANCED_FACE ( 'NONE', ( #48, #174 ), #173, .T. ) ;
#74 = DATE_AND_TIME ( #13, #118 ) ;
#75 = ORIENTED_EDGE ( 'NONE', *, *, #51, .T. ) ;
#76 = AXIS2_PLACEMENT_3D ( 'NONE', #143, #140, #108 ) ;
#77 = FACE_OUTER_BOUND ( 'NONE', #100, .T. ) ;
#78 = ORIENTED_EDGE ( 'NONE', *, *, #166, .F. ) ;
#79 = DIRECTION ( 'NONE',  ( -1.000000000000000000, 4.525749909300000200E-017, -0.0000000000000000000 ) ) ;
#80 = CALENDAR_DATE ( 2017, 31, 7 ) ;
#81 = EDGE_CURVE ( 'NONE', #171, #171, #59, .T. ) ;
#82 = DIRECTION ( 'NONE',  ( 4.525749909300000200E-017, 1.000000000000000000, 0.0000000000000000000 ) ) ;
#83 = ORIENTED_EDGE ( 'NONE', *, *, #47, .F. ) ;
#84 = CC_DESIGN_DATE_AND_TIME_ASSIGNMENT ( #55, #169, ( #22 ) ) ;
#85 = CARTESIAN_POINT ( 'NONE',  ( 2.227239128592519700E-016, 4.921259842519686100, 0.0000000000000000000 ) ) ;
#86 = AXIS2_PLACEMENT_3D ( 'NONE', #213, #138, #28 ) ;
#87 = ORIENTED_EDGE ( 'NONE', *, *, #47, .T. ) ;
#88 = CALENDAR_DATE ( 2017, 31, 7 ) ;
#89 = APPLICATION_CONTEXT ( 'configuration controlled 3d designs of mechanical parts and assemblies' ) ;
#90 = DIRECTION ( 'NONE',  ( -1.000000000000000000, 2.714835750306919900E-048, 1.108452418947969900E-032 ) ) ;
#91 = SECURITY_CLASSIFICATION_LEVEL ( 'unclassified' ) ;
#92 = PERSON_AND_ORGANIZATION ( #130, #2 ) ;
#93 = APPROVAL_STATUS ( 'not_yet_approved' ) ;
#94 = DIRECTION ( 'NONE',  ( -1.108452418947969900E-032, 0.0000000000000000000, -1.000000000000000000 ) ) ;
#95 = EDGE_LOOP ( 'NONE', ( #225 ) ) ;
#96 =( LENGTH_UNIT ( ) NAMED_UNIT ( * ) SI_UNIT ( $, .METRE. ) );
#97 = DIRECTION ( 'NONE',  ( 1.000000000000000000, -4.525749909300000200E-017, 0.0000000000000000000 ) ) ;
#98 = CARTESIAN_POINT ( 'NONE',  ( 10.13779527559055200, 1.006712086123819000E-016, 0.0000000000000000000 ) ) ;
#99 = CONICAL_SURFACE ( 'NONE', #203, 4.027559055118109300, 0.6760650939920123100 ) ;
#100 = EDGE_LOOP ( 'NONE', ( #137 ) ) ;
#101 = CARTESIAN_POINT ( 'NONE',  ( 0.0000000000000000000, 0.0000000000000000000, 0.0000000000000000000 ) ) ;
#102 = SECURITY_CLASSIFICATION ( '', '', #91 ) ;
#103 = LOCAL_TIME ( 11, 25, 41.00000000000000000, #167 ) ;
#104 = APPROVAL_ROLE ( '' ) ;
#105 = DIRECTION ( 'NONE',  ( 0.0000000000000000000, 0.0000000000000000000, 1.000000000000000000 ) ) ;
#106 = DATE_AND_TIME ( #149, #103 ) ;
#107 = EDGE_CURVE ( 'NONE', #197, #197, #58, .T. ) ;
#108 = DIRECTION ( 'NONE',  ( 0.0000000000000000000, 1.000000000000000000, 0.0000000000000000000 ) ) ;
#109 = APPROVAL ( #63, 'UNSPECIFIED' ) ;
#110 = UNCERTAINTY_MEASURE_WITH_UNIT (LENGTH_MEASURE( 1.000000000000000100E-005 ), #175, 'distance_accuracy_value', 'NONE');
#111 = CIRCLE ( 'NONE', #12, 4.921259842519685200 ) ;
#112 = EDGE_LOOP ( 'NONE', ( #115 ) ) ;
#113 = APPROVAL_PERSON_ORGANIZATION ( #157, #150, #252 ) ;
#114 = DIRECTION ( 'NONE',  ( 0.0000000000000000000, 1.000000000000000000, 0.0000000000000000000 ) ) ;
#115 = ORIENTED_EDGE ( 'NONE', *, *, #81, .T. ) ;
#116 = AXIS2_PLACEMENT_3D ( 'NONE', #238, #79, #4 ) ;
#117 = PERSON_AND_ORGANIZATION ( #130, #2 ) ;
#118 = LOCAL_TIME ( 11, 25, 41.00000000000000000, #14 ) ;
#119 = ADVANCED_FACE ( 'NONE', ( #232, #227 ), #245, .F. ) ;
#120 = EDGE_CURVE ( 'NONE', #211, #211, #52, .T. ) ;
#121 = PERSON_AND_ORGANIZATION ( #130, #2 ) ;
#122 = APPLICATION_CONTEXT ( 'configuration controlled 3d designs of mechanical parts and assemblies' ) ;
#123 = CARTESIAN_POINT ( 'NONE',  ( 10.13779527559055200, 1.006712086123819000E-016, 0.0000000000000000000 ) ) ;
#124 =( NAMED_UNIT ( * ) PLANE_ANGLE_UNIT ( ) SI_UNIT ( $, .RADIAN. ) );
#125 = CC_DESIGN_PERSON_AND_ORGANIZATION_ASSIGNMENT ( #215, #32, ( #102 ) ) ;
#126 = LOCAL_TIME ( 11, 25, 41.00000000000000000, #10 ) ;
#127 = MECHANICAL_CONTEXT ( 'NONE', #122, 'mechanical' ) ;
#128 = ADVANCED_FACE ( 'NONE', ( #207, #250 ), #192, .T. ) ;
#129 = DIRECTION ( 'NONE',  ( -1.000000000000000000, 4.525749909300000200E-017, 0.0000000000000000000 ) ) ;
#130 = PERSON ( 'UNSPECIFIED', 'UNSPECIFIED', 'UNSPECIFIED', ('UNSPECIFIED'), ('UNSPECIFIED'), ('UNSPECIFIED') ) ;
#131 = CYLINDRICAL_SURFACE ( 'NONE', #187, 4.027559055118110200 ) ;
#132 = CARTESIAN_POINT ( 'NONE',  ( 12.36220472440945000, 3.032960542342103800E-032, -1.168898079247324100E-047 ) ) ;
#133 = ORIENTED_EDGE ( 'NONE', *, *, #166, .T. ) ;
#134 = VERTEX_POINT ( 'NONE', #85 ) ;
#135 = CC_DESIGN_PERSON_AND_ORGANIZATION_ASSIGNMENT ( #239, #208, ( #151 ) ) ;
#136 = EDGE_LOOP ( 'NONE', ( #36 ) ) ;
#137 = ORIENTED_EDGE ( 'NONE', *, *, #51, .F. ) ;
#138 = DIRECTION ( 'NONE',  ( -1.000000000000000000, -0.0000000000000000000, 0.0000000000000000000 ) ) ;
#139 = CC_DESIGN_SECURITY_CLASSIFICATION ( #102, ( #151 ) ) ;
#140 = DIRECTION ( 'NONE',  ( -1.000000000000000000, 4.525749909300000200E-017, -0.0000000000000000000 ) ) ;
#141 = CARTESIAN_POINT ( 'NONE',  ( 0.0000000000000000000, 5.594824691024409800E-016, 0.0000000000000000000 ) ) ;
#142 = VERTEX_POINT ( 'NONE', #27 ) ;
#143 = CARTESIAN_POINT ( 'NONE',  ( 6.102362204724409300, 2.833048171569684800E-016, 0.0000000000000000000 ) ) ;
#144 = DIRECTION ( 'NONE',  ( 1.000000000000000000, 0.0000000000000000000, 0.0000000000000000000 ) ) ;
#145 = AXIS2_PLACEMENT_3D ( 'NONE', #123, #35, #37 ) ;
#146 = CARTESIAN_POINT ( 'NONE',  ( 3.051181102362204600, 4.213936431297047300E-016, 0.0000000000000000000 ) ) ;
#147 = CARTESIAN_POINT ( 'NONE',  ( 12.36220472440945000, 2.862204724409449100, -7.010148182904488300E-016 ) ) ;
#148 = EDGE_LOOP ( 'NONE', ( #78 ) ) ;
#149 = CALENDAR_DATE ( 2017, 31, 7 ) ;
#150 = APPROVAL ( #93, 'UNSPECIFIED' ) ;
#151 = PRODUCT_DEFINITION_FORMATION_WITH_SPECIFIED_SOURCE ( 'ANY', '', #229, .NOT_KNOWN. ) ;
#152 = AXIS2_PLACEMENT_3D ( 'NONE', #98, #226, #230 ) ;
#153 = EDGE_LOOP ( 'NONE', ( #83 ) ) ;
#154 = CARTESIAN_POINT ( 'NONE',  ( 12.36220472440945000, 2.574803149606300000, 0.0000000000000000000 ) ) ;
#155 = ORIENTED_EDGE ( 'NONE', *, *, #120, .F. ) ;
#156 = DESIGN_CONTEXT ( 'detailed design', #89, 'design' ) ;
#157 = PERSON_AND_ORGANIZATION ( #130, #2 ) ;
#158 = FACE_OUTER_BOUND ( 'NONE', #11, .T. ) ;
#159 = EDGE_CURVE ( 'NONE', #134, #134, #111, .T. ) ;
#160 = VERTEX_POINT ( 'NONE', #67 ) ;
#161 = FACE_OUTER_BOUND ( 'NONE', #248, .T. ) ;
#162 = AXIS2_PLACEMENT_3D ( 'NONE', #147, #233, #94 ) ;
#163 = APPROVAL_DATE_TIME ( #9, #109 ) ;
#164 = EDGE_LOOP ( 'NONE', ( #155 ) ) ;
#165 = DIRECTION ( 'NONE',  ( 0.0000000000000000000, 1.000000000000000000, 0.0000000000000000000 ) ) ;
#166 = EDGE_CURVE ( 'NONE', #142, #142, #38, .T. ) ;
#167 = COORDINATED_UNIVERSAL_TIME_OFFSET ( 5, 0, .BEHIND. ) ;
#168 = DIRECTION ( 'NONE',  ( -1.000000000000000000, 4.525749909300000200E-017, 5.254869241218060200E-048 ) ) ;
#169 = DATE_TIME_ROLE ( 'creation_date' ) ;
#170 = CARTESIAN_POINT ( 'NONE',  ( 1.822772502840118200E-016, 4.027559055118111100, 0.0000000000000000000 ) ) ;
#171 = VERTEX_POINT ( 'NONE', #170 ) ;
#172 = DIRECTION ( 'NONE',  ( -1.000000000000000000, -0.0000000000000000000, 0.0000000000000000000 ) ) ;
#173 = CYLINDRICAL_SURFACE ( 'NONE', #221, 4.921259842519684300 ) ;
#174 = FACE_OUTER_BOUND ( 'NONE', #15, .T. ) ;
#175 =( CONVERSION_BASED_UNIT ( 'INCH', #70 ) LENGTH_UNIT ( ) NAMED_UNIT ( #19 ) );
#176 = LOCAL_TIME ( 11, 25, 41.00000000000000000, #42 ) ;
#177 = PRODUCT_RELATED_PRODUCT_CATEGORY ( 'detail', '', ( #229 ) ) ;
#178 = EDGE_CURVE ( 'NONE', #1, #1, #202, .T. ) ;
#179 = CIRCLE ( 'NONE', #206, 2.574803149606298600 ) ;
#180 = DIRECTION ( 'NONE',  ( 0.0000000000000000000, 1.000000000000000000, 0.0000000000000000000 ) ) ;
#181 = AXIS2_PLACEMENT_3D ( 'NONE', #44, #90, #20 ) ;
#182 = PRODUCT_DEFINITION_SHAPE ( 'NONE', 'NONE',  #22 ) ;
#183 = ADVANCED_FACE ( 'NONE', ( #217, #33 ), #204, .T. ) ;
#184 = CARTESIAN_POINT ( 'NONE',  ( 0.0000000000000000000, 5.594824691024409800E-016, 0.0000000000000000000 ) ) ;
#185 = APPROVAL_DATE_TIME ( #57, #150 ) ;
#186 = DATE_TIME_ROLE ( 'classification_date' ) ;
#187 = AXIS2_PLACEMENT_3D ( 'NONE', #146, #247, #165 ) ;
#188 = PERSON_AND_ORGANIZATION_ROLE ( 'design_owner' ) ;
#189 = FACE_BOUND ( 'NONE', #153, .T. ) ;
#190 = CC_DESIGN_APPROVAL ( #56, ( #22 ) ) ;
#191 = LOCAL_TIME ( 11, 25, 41.00000000000000000, #195 ) ;
#192 = PLANE ( 'NONE',  #162 ) ;
#193 = CARTESIAN_POINT ( 'NONE',  ( 12.36220472440945000, 3.149606299212598600, -1.168898079247324100E-047 ) ) ;
#194 = AXIS2_PLACEMENT_3D ( 'NONE', #30, #21, #180 ) ;
#195 = COORDINATED_UNIVERSAL_TIME_OFFSET ( 5, 0, .BEHIND. ) ;
#196 = CC_DESIGN_DATE_AND_TIME_ASSIGNMENT ( #74, #186, ( #102 ) ) ;
#197 = VERTEX_POINT ( 'NONE', #154 ) ;
#198 = CARTESIAN_POINT ( 'NONE',  ( 6.102362204724409300, 2.731847993664263200E-016, 0.0000000000000000000 ) ) ;
#199 = CARTESIAN_POINT ( 'NONE',  ( 7.913385826771654600, 2.013424172247637600E-016, 0.0000000000000000000 ) ) ;
#200 = VERTEX_POINT ( 'NONE', #228 ) ;
#201 = FACE_OUTER_BOUND ( 'NONE', #29, .T. ) ;
#202 = CIRCLE ( 'NONE', #222, 3.149606299212598600 ) ;
#203 = AXIS2_PLACEMENT_3D ( 'NONE', #198, #172, #105 ) ;
#204 = PLANE ( 'NONE',  #181 ) ;
#205 = FACE_BOUND ( 'NONE', #50, .T. ) ;
#206 = AXIS2_PLACEMENT_3D ( 'NONE', #199, #129, #223 ) ;
#207 = FACE_BOUND ( 'NONE', #95, .T. ) ;
#208 = PERSON_AND_ORGANIZATION_ROLE ( 'creator' ) ;
#209 = CC_DESIGN_PERSON_AND_ORGANIZATION_ASSIGNMENT ( #34, #241, ( #22 ) ) ;
#210 = CARTESIAN_POINT ( 'NONE',  ( 6.102362204724409300, 4.027559055118111100, 0.0000000000000000000 ) ) ;
#211 = VERTEX_POINT ( 'NONE', #210 ) ;
#212 = EDGE_LOOP ( 'NONE', ( #87 ) ) ;
#213 = CARTESIAN_POINT ( 'NONE',  ( 6.102362204724409300, 0.0000000000000000000, 0.0000000000000000000 ) ) ;
#214 = DIRECTION ( 'NONE',  ( -1.000000000000000000, 4.525749909300000200E-017, 0.0000000000000000000 ) ) ;
#215 = PERSON_AND_ORGANIZATION ( #130, #2 ) ;
#216 = DIRECTION ( 'NONE',  ( 1.000000000000000000, -4.525749909300000200E-017, 0.0000000000000000000 ) ) ;
#217 = FACE_OUTER_BOUND ( 'NONE', #24, .T. ) ;
#218 = CC_DESIGN_PERSON_AND_ORGANIZATION_ASSIGNMENT ( #121, #188, ( #229 ) ) ;
#219 = DIRECTION ( 'NONE',  ( 1.000000000000000000, -4.525749909300000200E-017, 0.0000000000000000000 ) ) ;
#220 = APPROVAL_ROLE ( '' ) ;
#221 = AXIS2_PLACEMENT_3D ( 'NONE', #240, #219, #114 ) ;
#222 = AXIS2_PLACEMENT_3D ( 'NONE', #132, #168, #7 ) ;
#223 = DIRECTION ( 'NONE',  ( 0.0000000000000000000, 1.000000000000000000, -2.449212707644750600E-016 ) ) ;
#224 = EDGE_LOOP ( 'NONE', ( #61 ) ) ;
#225 = ORIENTED_EDGE ( 'NONE', *, *, #107, .T. ) ;
#226 = DIRECTION ( 'NONE',  ( 1.000000000000000000, -4.525749909300000200E-017, 0.0000000000000000000 ) ) ;
#227 = FACE_OUTER_BOUND ( 'NONE', #212, .T. ) ;
#228 = CARTESIAN_POINT ( 'NONE',  ( 6.102362204724409300, 4.921259842519685200, 0.0000000000000000000 ) ) ;
#229 = PRODUCT ( '581229627', '581229627', '', ( #127 ) ) ;
#230 = DIRECTION ( 'NONE',  ( 0.0000000000000000000, 1.000000000000000000, 0.0000000000000000000 ) ) ;
#231 = ORIENTED_EDGE ( 'NONE', *, *, #159, .F. ) ;
#232 = FACE_OUTER_BOUND ( 'NONE', #224, .T. ) ;
#233 = DIRECTION ( 'NONE',  ( 1.000000000000000000, -2.714835750306929900E-048, -1.108452418947969900E-032 ) ) ;
#234 = FACE_OUTER_BOUND ( 'NONE', #148, .T. ) ;
#235 = ADVANCED_FACE ( 'NONE', ( #40, #201 ), #131, .F. ) ;
#236 = ORIENTED_EDGE ( 'NONE', *, *, #120, .T. ) ;
#237 = APPROVAL_PERSON_ORGANIZATION ( #5, #56, #220 ) ;
#238 = CARTESIAN_POINT ( 'NONE',  ( 12.36220472440945000, 1.516480271171051900E-032, 0.0000000000000000000 ) ) ;
#239 = PERSON_AND_ORGANIZATION ( #130, #2 ) ;
#240 = CARTESIAN_POINT ( 'NONE',  ( 3.051181102362204600, 4.213936431297047300E-016, 0.0000000000000000000 ) ) ;
#241 = PERSON_AND_ORGANIZATION_ROLE ( 'creator' ) ;
#242 = ADVANCED_FACE ( 'NONE', ( #205, #77 ), #66, .T. ) ;
#243 = AXIS2_PLACEMENT_3D ( 'NONE', #101, #244, #144 ) ;
#244 = DIRECTION ( 'NONE',  ( 0.0000000000000000000, 0.0000000000000000000, 1.000000000000000000 ) ) ;
#245 = CYLINDRICAL_SURFACE ( 'NONE', #152, 2.574803149606300000 ) ;
#246 = CIRCLE ( 'NONE', #76, 4.921259842519684300 ) ;
#247 = DIRECTION ( 'NONE',  ( 1.000000000000000000, -4.525749909300000200E-017, 0.0000000000000000000 ) ) ;
#248 = EDGE_LOOP ( 'NONE', ( #68 ) ) ;
#249 = AXIS2_PLACEMENT_3D ( 'NONE', #18, #214, #17 ) ;
#250 = FACE_OUTER_BOUND ( 'NONE', #136, .T. ) ;
#251 = ORIENTED_EDGE ( 'NONE', *, *, #159, .T. ) ;
#252 = APPROVAL_ROLE ( '' ) ;
ENDSEC;
END-ISO-10303-21;
