ISO-10303-21;
HEADER;
FILE_DESCRIPTION (( 'STEP AP203' ),
    '1' );
FILE_NAME ('581229585.STEP',
    '2017-07-31T15:21:39',
    ( '' ),
    ( '' ),
    'SwSTEP 2.0',
    'SolidWorks 2017',
    '' );
FILE_SCHEMA (( 'CONFIG_CONTROL_DESIGN' ));
ENDSEC;

DATA;
#1 = DIRECTION ( 'NONE',  ( -1.000000000000000000, 5.639228061588100100E-017, -0.0000000000000000000 ) ) ;
#2 = CARTESIAN_POINT ( 'NONE',  ( 5.905511811023622200, 3.149606299212598600, -7.714055772109449500E-016 ) ) ;
#3 = COORDINATED_UNIVERSAL_TIME_OFFSET ( 5, 0, .BEHIND. ) ;
#4 = DIRECTION ( 'NONE',  ( 1.000000000000000000, -5.639228061588100100E-017, 0.0000000000000000000 ) ) ;
#5 = CC_DESIGN_PERSON_AND_ORGANIZATION_ASSIGNMENT ( #175, #38, ( #105 ) ) ;
#6 = DIRECTION ( 'NONE',  ( 0.0000000000000000000, 1.000000000000000000, 0.0000000000000000000 ) ) ;
#7 = COORDINATED_UNIVERSAL_TIME_OFFSET ( 5, 0, .BEHIND. ) ;
#8 = DIRECTION ( 'NONE',  ( -1.000000000000000000, 6.938893903907232100E-017, 6.938893903907227100E-017 ) ) ;
#9 = ORIENTED_EDGE ( 'NONE', *, *, #26, .F. ) ;
#10 = CARTESIAN_POINT ( 'NONE',  ( 0.0000000000000000000, 3.578740157480315300, -8.765095871059370500E-016 ) ) ;
#11 = VERTEX_POINT ( 'NONE', #122 ) ;
#12 = CARTESIAN_POINT ( 'NONE',  ( 0.0000000000000000000, 0.0000000000000000000, 0.0000000000000000000 ) ) ;
#13 = PERSON_AND_ORGANIZATION ( #134, #117 ) ;
#14 = AXIS2_PLACEMENT_3D ( 'NONE', #216, #41, #224 ) ;
#15 = PERSON_AND_ORGANIZATION_ROLE ( 'design_owner' ) ;
#16 = CARTESIAN_POINT ( 'NONE',  ( 4.409448818897638800, 3.108235939458017200E-016, 0.0000000000000000000 ) ) ;
#17 = PERSON_AND_ORGANIZATION ( #134, #117 ) ;
#18 = DIRECTION ( 'NONE',  ( 5.639228061588100100E-017, 1.000000000000000000, 0.0000000000000000000 ) ) ;
#19 = ADVANCED_FACE ( 'NONE', ( #204, #225 ), #159, .F. ) ;
#20 = CARTESIAN_POINT ( 'NONE',  ( 4.409448818897636200, 2.731847993664262700E-016, -1.895600338963813800E-032 ) ) ;
#21 = EDGE_CURVE ( 'NONE', #155, #155, #110, .T. ) ;
#22 = FACE_BOUND ( 'NONE', #44, .T. ) ;
#23 = AXIS2_PLACEMENT_3D ( 'NONE', #135, #86, #132 ) ;
#24 =( NAMED_UNIT ( * ) PLANE_ANGLE_UNIT ( ) SI_UNIT ( $, .RADIAN. ) );
#25 = PERSON_AND_ORGANIZATION_ROLE ( 'classification_officer' ) ;
#26 = EDGE_CURVE ( 'NONE', #217, #217, #182, .T. ) ;
#27 = AXIS2_PLACEMENT_3D ( 'NONE', #231, #85, #128 ) ;
#28 = COORDINATED_UNIVERSAL_TIME_OFFSET ( 5, 0, .BEHIND. ) ;
#29 = SECURITY_CLASSIFICATION ( '', '', #140 ) ;
#30 = EDGE_CURVE ( 'NONE', #11, #11, #60, .T. ) ;
#31 = LOCAL_TIME ( 11, 21, 39.00000000000000000, #58 ) ;
#32 = AXIS2_PLACEMENT_3D ( 'NONE', #215, #133, #6 ) ;
#33 = APPROVAL_ROLE ( '' ) ;
#34 = FACE_OUTER_BOUND ( 'NONE', #78, .T. ) ;
#35 = APPROVAL_ROLE ( '' ) ;
#36 = LOCAL_TIME ( 11, 21, 39.00000000000000000, #7 ) ;
#37 = DATE_AND_TIME ( #145, #31 ) ;
#38 = PERSON_AND_ORGANIZATION_ROLE ( 'creator' ) ;
#39 = LOCAL_TIME ( 11, 21, 39.00000000000000000, #211 ) ;
#40 = LOCAL_TIME ( 11, 21, 39.00000000000000000, #28 ) ;
#41 = DIRECTION ( 'NONE',  ( -1.000000000000000000, 5.639228061588100100E-017, 2.620988626705229900E-048 ) ) ;
#42 = APPLICATION_CONTEXT ( 'configuration controlled 3d designs of mechanical parts and assemblies' ) ;
#43 = CC_DESIGN_DATE_AND_TIME_ASSIGNMENT ( #103, #236, ( #202 ) ) ;
#44 = EDGE_LOOP ( 'NONE', ( #193 ) ) ;
#45 = APPROVAL_DATE_TIME ( #157, #245 ) ;
#46 = AXIS2_PLACEMENT_3D ( 'NONE', #106, #80, #162 ) ;
#47 = ORIENTED_EDGE ( 'NONE', *, *, #21, .T. ) ;
#48 = ADVANCED_FACE ( 'NONE', ( #242, #95 ), #181, .F. ) ;
#49 = EDGE_LOOP ( 'NONE', ( #62 ) ) ;
#50 = DIRECTION ( 'NONE',  ( 0.0000000000000000000, 1.000000000000000000, 0.0000000000000000000 ) ) ;
#51 = FACE_OUTER_BOUND ( 'NONE', #64, .T. ) ;
#52 = DIRECTION ( 'NONE',  ( -1.000000000000000000, 3.382771530144340000E-048, 1.381166902974850000E-032 ) ) ;
#53 = DIRECTION ( 'NONE',  ( -1.000000000000000000, 5.639228061588100100E-017, 1.675382696570220100E-048 ) ) ;
#54 = CYLINDRICAL_SURFACE ( 'NONE', #27, 3.937007874015748100 ) ;
#55 = EDGE_LOOP ( 'NONE', ( #184 ) ) ;
#56 = CALENDAR_DATE ( 2017, 31, 7 ) ;
#57 = PERSON_AND_ORGANIZATION_ROLE ( 'creator' ) ;
#58 = COORDINATED_UNIVERSAL_TIME_OFFSET ( 5, 0, .BEHIND. ) ;
#59 = EDGE_LOOP ( 'NONE', ( #251 ) ) ;
#60 = CIRCLE ( 'NONE', #112, 3.937007874015748100 ) ;
#61 = EDGE_LOOP ( 'NONE', ( #68 ) ) ;
#62 = ORIENTED_EDGE ( 'NONE', *, *, #241, .T. ) ;
#63 = FACE_OUTER_BOUND ( 'NONE', #61, .T. ) ;
#64 = EDGE_LOOP ( 'NONE', ( #83 ) ) ;
#65 = APPLICATION_PROTOCOL_DEFINITION ( 'international standard', 'config_control_design', 1994, #42 ) ;
#66 = VERTEX_POINT ( 'NONE', #240 ) ;
#67 = ORIENTED_EDGE ( 'NONE', *, *, #79, .F. ) ;
#68 = ORIENTED_EDGE ( 'NONE', *, *, #241, .F. ) ;
#69 = DIRECTION ( 'NONE',  ( 0.0000000000000000000, 0.0000000000000000000, 1.000000000000000000 ) ) ;
#70 = CC_DESIGN_APPROVAL ( #245, ( #105 ) ) ;
#71 = MECHANICAL_CONTEXT ( 'NONE', #176, 'mechanical' ) ;
#72 = CALENDAR_DATE ( 2017, 31, 7 ) ;
#73 = EDGE_LOOP ( 'NONE', ( #174 ) ) ;
#74 = EDGE_LOOP ( 'NONE', ( #67 ) ) ;
#75 = AXIS2_PLACEMENT_3D ( 'NONE', #97, #171, #196 ) ;
#76 = DIMENSIONAL_EXPONENTS ( 1.000000000000000000, 0.0000000000000000000, 0.0000000000000000000, 0.0000000000000000000, 0.0000000000000000000, 0.0000000000000000000, 0.0000000000000000000 ) ;
#77 = APPROVAL_STATUS ( 'not_yet_approved' ) ;
#78 = EDGE_LOOP ( 'NONE', ( #246 ) ) ;
#79 = EDGE_CURVE ( 'NONE', #229, #229, #208, .T. ) ;
#80 = DIRECTION ( 'NONE',  ( 1.000000000000000000, -5.639228061588100100E-017, -1.675382696570220100E-048 ) ) ;
#81 = EDGE_LOOP ( 'NONE', ( #96 ) ) ;
#82 = CC_DESIGN_SECURITY_CLASSIFICATION ( #29, ( #105 ) ) ;
#83 = ORIENTED_EDGE ( 'NONE', *, *, #30, .F. ) ;
#84 = EDGE_LOOP ( 'NONE', ( #129 ) ) ;
#85 = DIRECTION ( 'NONE',  ( 1.000000000000000000, -5.639228061588100100E-017, 0.0000000000000000000 ) ) ;
#86 = DIRECTION ( 'NONE',  ( 1.000000000000000000, -5.639228061588100100E-017, -1.675382696570220100E-048 ) ) ;
#87 = DATE_AND_TIME ( #56, #39 ) ;
#88 = CIRCLE ( 'NONE', #148, 3.149606299212598600 ) ;
#89 = ORIENTED_EDGE ( 'NONE', *, *, #183, .T. ) ;
#90 = DIRECTION ( 'NONE',  ( 0.0000000000000000000, 1.000000000000000000, 0.0000000000000000000 ) ) ;
#91 = APPROVAL ( #154, 'UNSPECIFIED' ) ;
#92 =( NAMED_UNIT ( * ) SI_UNIT ( $, .STERADIAN. ) SOLID_ANGLE_UNIT ( ) );
#93 = APPROVAL ( #142, 'UNSPECIFIED' ) ;
#94 = CARTESIAN_POINT ( 'NONE',  ( 7.913385826771654600, 1.132285949373988300E-016, 0.0000000000000000000 ) ) ;
#95 = FACE_OUTER_BOUND ( 'NONE', #74, .T. ) ;
#96 = ORIENTED_EDGE ( 'NONE', *, *, #243, .T. ) ;
#97 = CARTESIAN_POINT ( 'NONE',  ( 5.905511811023622200, 2.264571898747977600E-016, 1.548049661359384900E-048 ) ) ;
#98 = EDGE_CURVE ( 'NONE', #191, #191, #164, .T. ) ;
#99 = CC_DESIGN_APPROVAL ( #91, ( #29 ) ) ;
#100 = EDGE_LOOP ( 'NONE', ( #89 ) ) ;
#101 = CARTESIAN_POINT ( 'NONE',  ( 5.905511811023622200, 2.264571898747977200E-016, 0.0000000000000000000 ) ) ;
#102 = FACE_OUTER_BOUND ( 'NONE', #49, .T. ) ;
#103 = DATE_AND_TIME ( #136, #36 ) ;
#104 = APPROVAL_PERSON_ORGANIZATION ( #214, #93, #35 ) ;
#105 = PRODUCT_DEFINITION_FORMATION_WITH_SPECIFIED_SOURCE ( 'ANY', '', #180, .NOT_KNOWN. ) ;
#106 = CARTESIAN_POINT ( 'NONE',  ( 2.204724409448819000, 4.351530315241220400E-016, 0.0000000000000000000 ) ) ;
#107 = AXIS2_PLACEMENT_3D ( 'NONE', #221, #109, #153 ) ;
#108 = AXIS2_PLACEMENT_3D ( 'NONE', #234, #53, #114 ) ;
#109 = DIRECTION ( 'NONE',  ( 1.000000000000000000, -3.382771530144340000E-048, -1.381166902974850000E-032 ) ) ;
#110 = CIRCLE ( 'NONE', #75, 2.574803149606299100 ) ;
#111 = DESIGN_CONTEXT ( 'detailed design', #42, 'design' ) ;
#112 = AXIS2_PLACEMENT_3D ( 'NONE', #16, #212, #90 ) ;
#113 = DIRECTION ( 'NONE',  ( 0.0000000000000000000, 1.000000000000000000, -2.449212707644750100E-016 ) ) ;
#114 = DIRECTION ( 'NONE',  ( 0.0000000000000000000, 1.000000000000000000, 0.0000000000000000000 ) ) ;
#115 = APPROVAL_ROLE ( '' ) ;
#116 = CC_DESIGN_DATE_AND_TIME_ASSIGNMENT ( #87, #127, ( #29 ) ) ;
#117 = ORGANIZATION ( 'UNSPECIFIED', 'UNSPECIFIED', '' ) ;
#118 = PLANE ( 'NONE',  #107 ) ;
#119 = CC_DESIGN_PERSON_AND_ORGANIZATION_ASSIGNMENT ( #227, #57, ( #202 ) ) ;
#120 = AXIS2_PLACEMENT_3D ( 'NONE', #10, #52, #200 ) ;
#121 = PRODUCT_DEFINITION_SHAPE ( 'NONE', 'NONE',  #202 ) ;
#122 = CARTESIAN_POINT ( 'NONE',  ( 4.409448818897638800, 3.937007874015749000, 0.0000000000000000000 ) ) ;
#123 = AXIS2_PLACEMENT_3D ( 'NONE', #20, #8, #161 ) ;
#124 = ADVANCED_FACE ( 'NONE', ( #167, #34 ), #54, .T. ) ;
#125 = CARTESIAN_POINT ( 'NONE',  ( 5.905511811023622200, 2.574803149606299100, -6.306240593699474800E-016 ) ) ;
#126 = CC_DESIGN_PERSON_AND_ORGANIZATION_ASSIGNMENT ( #150, #25, ( #29 ) ) ;
#127 = DATE_TIME_ROLE ( 'classification_date' ) ;
#128 = DIRECTION ( 'NONE',  ( 6.938893903907228400E-017, 1.000000000000000000, 0.0000000000000000000 ) ) ;
#129 = ORIENTED_EDGE ( 'NONE', *, *, #243, .F. ) ;
#130 = CONICAL_SURFACE ( 'NONE', #123, 3.937007874015748100, 0.4844779290370229700 ) ;
#131 = EDGE_LOOP ( 'NONE', ( #9 ) ) ;
#132 = DIRECTION ( 'NONE',  ( 5.639228061588100100E-017, 1.000000000000000000, 0.0000000000000000000 ) ) ;
#133 = DIRECTION ( 'NONE',  ( 1.000000000000000000, -5.639228061588100100E-017, 0.0000000000000000000 ) ) ;
#134 = PERSON ( 'UNSPECIFIED', 'UNSPECIFIED', 'UNSPECIFIED', ('UNSPECIFIED'), ('UNSPECIFIED'), ('UNSPECIFIED') ) ;
#135 = CARTESIAN_POINT ( 'NONE',  ( -2.731847993664263200E-016, 5.594824691024423700E-016, 3.693757126296549000E-048 ) ) ;
#136 = CALENDAR_DATE ( 2017, 31, 7 ) ;
#137 = PERSON_AND_ORGANIZATION ( #134, #117 ) ;
#138 = AXIS2_PLACEMENT_3D ( 'NONE', #94, #163, #50 ) ;
#139 = CC_DESIGN_PERSON_AND_ORGANIZATION_ASSIGNMENT ( #17, #149, ( #105 ) ) ;
#140 = SECURITY_CLASSIFICATION_LEVEL ( 'unclassified' ) ;
#141 = ADVANCED_FACE ( 'NONE', ( #239, #223 ), #230, .T. ) ;
#142 = APPROVAL_STATUS ( 'not_yet_approved' ) ;
#143 = FACE_OUTER_BOUND ( 'NONE', #131, .T. ) ;
#144 = DIRECTION ( 'NONE',  ( -1.000000000000000000, 5.639228061588100100E-017, 0.0000000000000000000 ) ) ;
#145 = CALENDAR_DATE ( 2017, 31, 7 ) ;
#146 = CARTESIAN_POINT ( 'NONE',  ( -9.157501376095129900E-017, 3.220472440944882400, 3.693757126296549000E-048 ) ) ;
#147 = CARTESIAN_POINT ( 'NONE',  ( -5.116794654799715700E-017, 3.937007874015749000, 0.0000000000000000000 ) ) ;
#148 = AXIS2_PLACEMENT_3D ( 'NONE', #192, #1, #209 ) ;
#149 = PERSON_AND_ORGANIZATION_ROLE ( 'design_supplier' ) ;
#150 = PERSON_AND_ORGANIZATION ( #134, #117 ) ;
#151 = AXIS2_PLACEMENT_3D ( 'NONE', #101, #144, #113 ) ;
#152 = EDGE_LOOP ( 'NONE', ( #178 ) ) ;
#153 = DIRECTION ( 'NONE',  ( -1.381166902974850000E-032, 0.0000000000000000000, -1.000000000000000000 ) ) ;
#154 = APPROVAL_STATUS ( 'not_yet_approved' ) ;
#155 = VERTEX_POINT ( 'NONE', #125 ) ;
#156 = CARTESIAN_POINT ( 'NONE',  ( 4.409448818897637100, 2.731847993664264200E-016, -3.145215448563911900E-047 ) ) ;
#157 = DATE_AND_TIME ( #235, #195 ) ;
#158 = ADVANCED_FACE ( 'NONE', ( #51, #22 ), #130, .T. ) ;
#159 = CONICAL_SURFACE ( 'NONE', #194, 3.220472440944881900, 0.4074298519011749800 ) ;
#160 = EDGE_LOOP ( 'NONE', ( #228 ) ) ;
#161 = DIRECTION ( 'NONE',  ( -1.387778780781445700E-016, -1.000000000000000000, 0.0000000000000000000 ) ) ;
#162 = DIRECTION ( 'NONE',  ( 8.482755383749667900E-017, 1.000000000000000000, 0.0000000000000000000 ) ) ;
#163 = DIRECTION ( 'NONE',  ( 1.000000000000000000, -5.639228061588100100E-017, -2.620988626705229900E-048 ) ) ;
#164 = CIRCLE ( 'NONE', #14, 2.574803149606300000 ) ;
#165 = EDGE_LOOP ( 'NONE', ( #47 ) ) ;
#166 = APPROVAL_PERSON_ORGANIZATION ( #137, #245, #33 ) ;
#167 = FACE_OUTER_BOUND ( 'NONE', #100, .T. ) ;
#168 = CARTESIAN_POINT ( 'NONE',  ( 9.921259842519685200, 3.149606299212598600, 0.0000000000000000000 ) ) ;
#169 = SHAPE_DEFINITION_REPRESENTATION ( #121, #213 ) ;
#170 = APPROVAL_DATE_TIME ( #252, #91 ) ;
#171 = DIRECTION ( 'NONE',  ( -1.000000000000000000, 5.639228061588100100E-017, -2.069497968343600100E-048 ) ) ;
#172 = LENGTH_MEASURE_WITH_UNIT ( LENGTH_MEASURE( 0.02539999999999999900 ), #238 );
#173 = FACE_BOUND ( 'NONE', #55, .T. ) ;
#174 = ORIENTED_EDGE ( 'NONE', *, *, #79, .T. ) ;
#175 = PERSON_AND_ORGANIZATION ( #134, #117 ) ;
#176 = APPLICATION_CONTEXT ( 'configuration controlled 3d designs of mechanical parts and assemblies' ) ;
#177 = APPROVAL_DATE_TIME ( #37, #93 ) ;
#178 = ORIENTED_EDGE ( 'NONE', *, *, #183, .F. ) ;
#179 = UNCERTAINTY_MEASURE_WITH_UNIT (LENGTH_MEASURE( 1.000000000000000100E-005 ), #219, 'distance_accuracy_value', 'NONE');
#180 = PRODUCT ( '581229585', '581229585', '', ( #71 ) ) ;
#181 = CYLINDRICAL_SURFACE ( 'NONE', #46, 3.220472440944881900 ) ;
#182 = CIRCLE ( 'NONE', #151, 3.149606299212598600 ) ;
#183 = EDGE_CURVE ( 'NONE', #250, #250, #205, .T. ) ;
#184 = ORIENTED_EDGE ( 'NONE', *, *, #98, .T. ) ;
#185 = CARTESIAN_POINT ( 'NONE',  ( 9.921259842519685200, 2.574803149606300000, -5.262614959132547900E-048 ) ) ;
#186 = CYLINDRICAL_SURFACE ( 'NONE', #138, 2.574803149606300000 ) ;
#187 = PRODUCT_RELATED_PRODUCT_CATEGORY ( 'detail', '', ( #180 ) ) ;
#188 = PERSON_AND_ORGANIZATION ( #134, #117 ) ;
#189 = CC_DESIGN_APPROVAL ( #93, ( #202 ) ) ;
#190 = DIRECTION ( 'NONE',  ( -1.000000000000000000, 1.696551076749933600E-016, -5.756571112042718400E-032 ) ) ;
#191 = VERTEX_POINT ( 'NONE', #185 ) ;
#192 = CARTESIAN_POINT ( 'NONE',  ( 9.921259842519685200, -3.032960542342103800E-032, 0.0000000000000000000 ) ) ;
#193 = ORIENTED_EDGE ( 'NONE', *, *, #26, .T. ) ;
#194 = AXIS2_PLACEMENT_3D ( 'NONE', #156, #190, #249 ) ;
#195 = LOCAL_TIME ( 11, 21, 39.00000000000000000, #3 ) ;
#196 = DIRECTION ( 'NONE',  ( 0.0000000000000000000, 1.000000000000000000, -2.449212707644750100E-016 ) ) ;
#197 = DIRECTION ( 'NONE',  ( 1.000000000000000000, 0.0000000000000000000, 0.0000000000000000000 ) ) ;
#198 =( GEOMETRIC_REPRESENTATION_CONTEXT ( 3 ) GLOBAL_UNCERTAINTY_ASSIGNED_CONTEXT ( ( #179 ) ) GLOBAL_UNIT_ASSIGNED_CONTEXT ( ( #219, #24, #92 ) ) REPRESENTATION_CONTEXT ( 'NONE', 'WORKASPACE' ) );
#199 = APPLICATION_PROTOCOL_DEFINITION ( 'international standard', 'config_control_design', 1994, #176 ) ;
#200 = DIRECTION ( 'NONE',  ( 1.381166902974850000E-032, 0.0000000000000000000, 1.000000000000000000 ) ) ;
#201 = CLOSED_SHELL ( 'NONE', ( #124, #158, #141, #232, #48, #248, #19, #237 ) ) ;
#202 = PRODUCT_DEFINITION ( 'UNKNOWN', '', #105, #111 ) ;
#203 = FACE_OUTER_BOUND ( 'NONE', #165, .T. ) ;
#204 = FACE_BOUND ( 'NONE', #160, .T. ) ;
#205 = CIRCLE ( 'NONE', #247, 3.937007874015748100 ) ;
#206 = MANIFOLD_SOLID_BREP ( '1', #201 ) ;
#207 = CARTESIAN_POINT ( 'NONE',  ( -2.731847993664263200E-016, 5.594824691024423700E-016, 0.0000000000000000000 ) ) ;
#208 = CIRCLE ( 'NONE', #23, 3.220472440944881900 ) ;
#209 = DIRECTION ( 'NONE',  ( 0.0000000000000000000, 1.000000000000000000, 0.0000000000000000000 ) ) ;
#210 = CYLINDRICAL_SURFACE ( 'NONE', #32, 3.149606299212598600 ) ;
#211 = COORDINATED_UNIVERSAL_TIME_OFFSET ( 5, 0, .BEHIND. ) ;
#212 = DIRECTION ( 'NONE',  ( -1.000000000000000000, 5.639228061588100100E-017, -0.0000000000000000000 ) ) ;
#213 = ADVANCED_BREP_SHAPE_REPRESENTATION ( '581229585', ( #206, #226 ), #198 ) ;
#214 = PERSON_AND_ORGANIZATION ( #134, #117 ) ;
#215 = CARTESIAN_POINT ( 'NONE',  ( 7.913385826771654600, 1.132285949373988300E-016, 0.0000000000000000000 ) ) ;
#216 = CARTESIAN_POINT ( 'NONE',  ( 9.921259842519685200, -3.032960542342103800E-032, -5.262614959132547900E-048 ) ) ;
#217 = VERTEX_POINT ( 'NONE', #2 ) ;
#218 = CC_DESIGN_PERSON_AND_ORGANIZATION_ASSIGNMENT ( #188, #15, ( #180 ) ) ;
#219 =( CONVERSION_BASED_UNIT ( 'INCH', #172 ) LENGTH_UNIT ( ) NAMED_UNIT ( #76 ) );
#220 = FACE_OUTER_BOUND ( 'NONE', #59, .T. ) ;
#221 = CARTESIAN_POINT ( 'NONE',  ( 9.921259842519685200, 2.862204724409449100, -7.010148182904488300E-016 ) ) ;
#222 = CIRCLE ( 'NONE', #108, 3.220472440944881900 ) ;
#223 = FACE_BOUND ( 'NONE', #73, .T. ) ;
#224 = DIRECTION ( 'NONE',  ( 0.0000000000000000000, 1.000000000000000000, 0.0000000000000000000 ) ) ;
#225 = FACE_OUTER_BOUND ( 'NONE', #81, .T. ) ;
#226 = AXIS2_PLACEMENT_3D ( 'NONE', #12, #69, #197 ) ;
#227 = PERSON_AND_ORGANIZATION ( #134, #117 ) ;
#228 = ORIENTED_EDGE ( 'NONE', *, *, #21, .F. ) ;
#229 = VERTEX_POINT ( 'NONE', #146 ) ;
#230 = PLANE ( 'NONE',  #120 ) ;
#231 = CARTESIAN_POINT ( 'NONE',  ( 2.204724409448819000, 4.351530315241220400E-016, 0.0000000000000000000 ) ) ;
#232 = ADVANCED_FACE ( 'NONE', ( #143, #102 ), #210, .T. ) ;
#233 = APPROVAL_PERSON_ORGANIZATION ( #13, #91, #115 ) ;
#234 = CARTESIAN_POINT ( 'NONE',  ( 4.409448818897638800, 3.108235939458017200E-016, -3.693757126296549000E-048 ) ) ;
#235 = CALENDAR_DATE ( 2017, 31, 7 ) ;
#236 = DATE_TIME_ROLE ( 'creation_date' ) ;
#237 = ADVANCED_FACE ( 'NONE', ( #220, #203 ), #186, .F. ) ;
#238 =( LENGTH_UNIT ( ) NAMED_UNIT ( * ) SI_UNIT ( $, .METRE. ) );
#239 = FACE_OUTER_BOUND ( 'NONE', #152, .T. ) ;
#240 = CARTESIAN_POINT ( 'NONE',  ( 4.409448818897638800, 3.220472440944882400, -3.693757126296549000E-048 ) ) ;
#241 = EDGE_CURVE ( 'NONE', #244, #244, #88, .T. ) ;
#242 = FACE_OUTER_BOUND ( 'NONE', #84, .T. ) ;
#243 = EDGE_CURVE ( 'NONE', #66, #66, #222, .T. ) ;
#244 = VERTEX_POINT ( 'NONE', #168 ) ;
#245 = APPROVAL ( #77, 'UNSPECIFIED' ) ;
#246 = ORIENTED_EDGE ( 'NONE', *, *, #30, .T. ) ;
#247 = AXIS2_PLACEMENT_3D ( 'NONE', #207, #4, #18 ) ;
#248 = ADVANCED_FACE ( 'NONE', ( #173, #63 ), #118, .T. ) ;
#249 = DIRECTION ( 'NONE',  ( -1.696551076749933600E-016, -1.000000000000000000, 0.0000000000000000000 ) ) ;
#250 = VERTEX_POINT ( 'NONE', #147 ) ;
#251 = ORIENTED_EDGE ( 'NONE', *, *, #98, .F. ) ;
#252 = DATE_AND_TIME ( #72, #40 ) ;
ENDSEC;
END-ISO-10303-21;
