ISO-10303-21;
HEADER;
FILE_DESCRIPTION (( 'STEP AP203' ),
    '1' );
FILE_NAME ('581229211.STEP',
    '2017-07-31T14:53:25',
    ( '' ),
    ( '' ),
    'SwSTEP 2.0',
    'SolidWorks 2017',
    '' );
FILE_SCHEMA (( 'CONFIG_CONTROL_DESIGN' ));
ENDSEC;

DATA;
#1 = CALENDAR_DATE ( 2017, 31, 7 ) ;
#2 = CIRCLE ( 'NONE', #61, 0.6299212598425196800 ) ;
#3 = DIRECTION ( 'NONE',  ( 0.0000000000000000000, 1.000000000000000000, 0.0000000000000000000 ) ) ;
#4 = ADVANCED_FACE ( 'NONE', ( #225, #185 ), #92, .F. ) ;
#5 = EDGE_CURVE ( 'NONE', #162, #162, #192, .T. ) ;
#6 = CARTESIAN_POINT ( 'NONE',  ( 2.322834645669291700, 0.9842519685039369200, 2.603987697485490100E-048 ) ) ;
#7 = VERTEX_POINT ( 'NONE', #38 ) ;
#8 = ADVANCED_FACE ( 'NONE', ( #104, #111 ), #232, .F. ) ;
#9 = ORIENTED_EDGE ( 'NONE', *, *, #67, .T. ) ;
#10 = SECURITY_CLASSIFICATION ( '', '', #118 ) ;
#11 = DIRECTION ( 'NONE',  ( 0.0000000000000000000, 1.000000000000000000, 0.0000000000000000000 ) ) ;
#12 = APPROVAL_PERSON_ORGANIZATION ( #152, #138, #141 ) ;
#13 = CARTESIAN_POINT ( 'NONE',  ( 0.0000000000000000000, 0.8937007874015748800, -2.188863325336059300E-016 ) ) ;
#14 = DIRECTION ( 'NONE',  ( 1.000000000000000000, 3.010774304068219900E-017, -8.418027106910899500E-049 ) ) ;
#15 = ORIENTED_EDGE ( 'NONE', *, *, #67, .F. ) ;
#16 = DIRECTION ( 'NONE',  ( 0.0000000000000000000, 1.000000000000000000, 0.0000000000000000000 ) ) ;
#17 = CIRCLE ( 'NONE', #179, 0.5118110236220473300 ) ;
#18 = AXIS2_PLACEMENT_3D ( 'NONE', #20, #14, #16 ) ;
#19 = EDGE_LOOP ( 'NONE', ( #175 ) ) ;
#20 = CARTESIAN_POINT ( 'NONE',  ( 1.161417322834645800, -1.049029629567078800E-016, 0.0000000000000000000 ) ) ;
#21 =( CONVERSION_BASED_UNIT ( 'INCH', #36 ) LENGTH_UNIT ( ) NAMED_UNIT ( #125 ) );
#22 = APPLICATION_PROTOCOL_DEFINITION ( 'international standard', 'config_control_design', 1994, #41 ) ;
#23 = PERSON_AND_ORGANIZATION ( #219, #106 ) ;
#24 = EDGE_LOOP ( 'NONE', ( #218 ) ) ;
#25 = DIRECTION ( 'NONE',  ( -3.010774304068219900E-017, 1.000000000000000000, 0.0000000000000000000 ) ) ;
#26 = PERSON_AND_ORGANIZATION_ROLE ( 'creator' ) ;
#27 = ADVANCED_FACE ( 'NONE', ( #210, #47 ), #186, .T. ) ;
#28 = FACE_OUTER_BOUND ( 'NONE', #55, .T. ) ;
#29 = FACE_OUTER_BOUND ( 'NONE', #68, .T. ) ;
#30 = EDGE_CURVE ( 'NONE', #7, #7, #2, .T. ) ;
#31 = EDGE_LOOP ( 'NONE', ( #70 ) ) ;
#32 = EDGE_LOOP ( 'NONE', ( #142 ) ) ;
#33 = EDGE_CURVE ( 'NONE', #94, #94, #155, .T. ) ;
#34 = ADVANCED_FACE ( 'NONE', ( #191, #107 ), #63, .T. ) ;
#35 = CIRCLE ( 'NONE', #77, 0.5118110236220471100 ) ;
#36 = LENGTH_MEASURE_WITH_UNIT ( LENGTH_MEASURE( 0.02539999999999999900 ), #220 );
#37 = PERSON_AND_ORGANIZATION_ROLE ( 'design_supplier' ) ;
#38 = CARTESIAN_POINT ( 'NONE',  ( 2.834645669291338900, 0.6299212598425196800, -1.542811154421889700E-016 ) ) ;
#39 = DIRECTION ( 'NONE',  ( 0.0000000000000000000, 1.000000000000000000, -2.449212707644749600E-016 ) ) ;
#40 = DIRECTION ( 'NONE',  ( 1.000000000000000000, 1.806055986433000100E-048, 7.374026685374179300E-033 ) ) ;
#41 = APPLICATION_CONTEXT ( 'configuration controlled 3d designs of mechanical parts and assemblies' ) ;
#42 = APPLICATION_PROTOCOL_DEFINITION ( 'international standard', 'config_control_design', 1994, #157 ) ;
#43 = PERSON_AND_ORGANIZATION ( #219, #106 ) ;
#44 = CC_DESIGN_APPROVAL ( #138, ( #10 ) ) ;
#45 = DATE_AND_TIME ( #1, #154 ) ;
#46 = CYLINDRICAL_SURFACE ( 'NONE', #123, 0.9842519685039370400 ) ;
#47 = FACE_OUTER_BOUND ( 'NONE', #83, .T. ) ;
#48 = AXIS2_PLACEMENT_3D ( 'NONE', #159, #247, #134 ) ;
#49 = CARTESIAN_POINT ( 'NONE',  ( 2.834645669291338900, -5.452583385320415200E-017, 0.0000000000000000000 ) ) ;
#50 = LOCAL_TIME ( 10, 53, 25.00000000000000000, #251 ) ;
#51 = EDGE_LOOP ( 'NONE', ( #78 ) ) ;
#52 = DIRECTION ( 'NONE',  ( -1.000000000000000000, -1.806055986433000100E-048, -7.374026685374179300E-033 ) ) ;
#53 = LOCAL_TIME ( 10, 53, 25.00000000000000000, #98 ) ;
#54 = CYLINDRICAL_SURFACE ( 'NONE', #227, 0.6299212598425196800 ) ;
#55 = EDGE_LOOP ( 'NONE', ( #238 ) ) ;
#56 = PRODUCT_RELATED_PRODUCT_CATEGORY ( 'detail', '', ( #235 ) ) ;
#57 = DIRECTION ( 'NONE',  ( 7.374026685374179300E-033, 0.0000000000000000000, -1.000000000000000000 ) ) ;
#58 = MECHANICAL_CONTEXT ( 'NONE', #41, 'mechanical' ) ;
#59 = ORIENTED_EDGE ( 'NONE', *, *, #239, .F. ) ;
#60 = CLOSED_SHELL ( 'NONE', ( #144, #34, #27, #116, #201, #4, #182, #8 ) ) ;
#61 = AXIS2_PLACEMENT_3D ( 'NONE', #150, #105, #100 ) ;
#62 = DIRECTION ( 'NONE',  ( 0.0000000000000000000, 1.000000000000000000, 0.0000000000000000000 ) ) ;
#63 = PLANE ( 'NONE',  #131 ) ;
#64 = CIRCLE ( 'NONE', #151, 0.8031496062992125000 ) ;
#65 = CALENDAR_DATE ( 2017, 31, 7 ) ;
#66 = DIRECTION ( 'NONE',  ( -1.000000000000000000, -3.010774304068219900E-017, 8.418027106910899500E-049 ) ) ;
#67 = EDGE_CURVE ( 'NONE', #143, #143, #64, .T. ) ;
#68 = EDGE_LOOP ( 'NONE', ( #146 ) ) ;
#69 = DIRECTION ( 'NONE',  ( 1.000000000000000000, 3.010774304068219900E-017, 2.242077542919709900E-048 ) ) ;
#70 = ORIENTED_EDGE ( 'NONE', *, *, #30, .F. ) ;
#71 = EDGE_LOOP ( 'NONE', ( #79 ) ) ;
#72 = DATE_TIME_ROLE ( 'classification_date' ) ;
#73 = AXIS2_PLACEMENT_3D ( 'NONE', #183, #136, #156 ) ;
#74 = ADVANCED_BREP_SHAPE_REPRESENTATION ( '581229211', ( #221, #113 ), #97 ) ;
#75 = EDGE_LOOP ( 'NONE', ( #231 ) ) ;
#76 = CARTESIAN_POINT ( 'NONE',  ( 0.0000000000000000000, -1.398706172756104400E-016, 9.776842506057936200E-049 ) ) ;
#77 = AXIS2_PLACEMENT_3D ( 'NONE', #49, #122, #39 ) ;
#78 = ORIENTED_EDGE ( 'NONE', *, *, #170, .F. ) ;
#79 = ORIENTED_EDGE ( 'NONE', *, *, #180, .T. ) ;
#80 = CC_DESIGN_PERSON_AND_ORGANIZATION_ASSIGNMENT ( #228, #37, ( #241 ) ) ;
#81 = CARTESIAN_POINT ( 'NONE',  ( 2.834645669291338900, 0.5118110236220470000, -1.253534062967785000E-016 ) ) ;
#82 = CC_DESIGN_PERSON_AND_ORGANIZATION_ASSIGNMENT ( #202, #101, ( #10 ) ) ;
#83 = EDGE_LOOP ( 'NONE', ( #199 ) ) ;
#84 = CARTESIAN_POINT ( 'NONE',  ( 1.161417322834645800, -1.049029629567078800E-016, 0.0000000000000000000 ) ) ;
#85 = CC_DESIGN_DATE_AND_TIME_ASSIGNMENT ( #233, #137, ( #96 ) ) ;
#86 = DIRECTION ( 'NONE',  ( 0.0000000000000000000, 1.000000000000000000, 0.0000000000000000000 ) ) ;
#87 = AXIS2_PLACEMENT_3D ( 'NONE', #169, #158, #196 ) ;
#88 = ORIENTED_EDGE ( 'NONE', *, *, #180, .F. ) ;
#89 = CC_DESIGN_PERSON_AND_ORGANIZATION_ASSIGNMENT ( #133, #161, ( #241 ) ) ;
#90 = APPROVAL_STATUS ( 'not_yet_approved' ) ;
#91 = CYLINDRICAL_SURFACE ( 'NONE', #18, 0.8031496062992125000 ) ;
#92 = CONICAL_SURFACE ( 'NONE', #73, 0.8031496062992127300, 0.5174877409741088800 ) ;
#93 = CC_DESIGN_APPROVAL ( #194, ( #241 ) ) ;
#94 = VERTEX_POINT ( 'NONE', #243 ) ;
#95 = DIRECTION ( 'NONE',  ( 0.0000000000000000000, 1.000000000000000000, 0.0000000000000000000 ) ) ;
#96 = PRODUCT_DEFINITION ( 'UNKNOWN', '', #241, #148 ) ;
#97 =( GEOMETRIC_REPRESENTATION_CONTEXT ( 3 ) GLOBAL_UNCERTAINTY_ASSIGNED_CONTEXT ( ( #166 ) ) GLOBAL_UNIT_ASSIGNED_CONTEXT ( ( #21, #240, #230 ) ) REPRESENTATION_CONTEXT ( 'NONE', 'WORKASPACE' ) );
#98 = COORDINATED_UNIVERSAL_TIME_OFFSET ( 5, 0, .BEHIND. ) ;
#99 = CC_DESIGN_PERSON_AND_ORGANIZATION_ASSIGNMENT ( #23, #130, ( #235 ) ) ;
#100 = DIRECTION ( 'NONE',  ( 0.0000000000000000000, 1.000000000000000000, -2.449212707644750100E-016 ) ) ;
#101 = PERSON_AND_ORGANIZATION_ROLE ( 'classification_officer' ) ;
#102 = APPROVAL_DATE_TIME ( #187, #138 ) ;
#103 = LOCAL_TIME ( 10, 53, 25.00000000000000000, #163 ) ;
#104 = FACE_OUTER_BOUND ( 'NONE', #189, .T. ) ;
#105 = DIRECTION ( 'NONE',  ( -1.000000000000000000, -3.010774304068219900E-017, -0.0000000000000000000 ) ) ;
#106 = ORGANIZATION ( 'UNSPECIFIED', 'UNSPECIFIED', '' ) ;
#107 = FACE_BOUND ( 'NONE', #110, .T. ) ;
#108 = DATE_AND_TIME ( #65, #103 ) ;
#109 = AXIS2_PLACEMENT_3D ( 'NONE', #236, #115, #165 ) ;
#110 = EDGE_LOOP ( 'NONE', ( #9 ) ) ;
#111 = FACE_OUTER_BOUND ( 'NONE', #32, .T. ) ;
#112 = APPROVAL_ROLE ( '' ) ;
#113 = AXIS2_PLACEMENT_3D ( 'NONE', #174, #222, #195 ) ;
#114 = CARTESIAN_POINT ( 'NONE',  ( 0.0000000000000000000, -1.398706172756104400E-016, -2.603987697485490100E-048 ) ) ;
#115 = DIRECTION ( 'NONE',  ( -1.000000000000000000, -3.010774304068219900E-017, -0.0000000000000000000 ) ) ;
#116 = ADVANCED_FACE ( 'NONE', ( #167, #198 ), #91, .F. ) ;
#117 = CC_DESIGN_APPROVAL ( #250, ( #96 ) ) ;
#118 = SECURITY_CLASSIFICATION_LEVEL ( 'unclassified' ) ;
#119 = AXIS2_PLACEMENT_3D ( 'NONE', #214, #40, #57 ) ;
#120 = CIRCLE ( 'NONE', #109, 0.6299212598425196800 ) ;
#121 = VERTEX_POINT ( 'NONE', #245 ) ;
#122 = DIRECTION ( 'NONE',  ( -1.000000000000000000, -3.010774304068219900E-017, -0.0000000000000000000 ) ) ;
#123 = AXIS2_PLACEMENT_3D ( 'NONE', #84, #177, #62 ) ;
#124 = CC_DESIGN_SECURITY_CLASSIFICATION ( #10, ( #241 ) ) ;
#125 = DIMENSIONAL_EXPONENTS ( 1.000000000000000000, 0.0000000000000000000, 0.0000000000000000000, 0.0000000000000000000, 0.0000000000000000000, 0.0000000000000000000, 0.0000000000000000000 ) ;
#126 = COORDINATED_UNIVERSAL_TIME_OFFSET ( 5, 0, .BEHIND. ) ;
#127 = AXIS2_PLACEMENT_3D ( 'NONE', #176, #226, #95 ) ;
#128 = CALENDAR_DATE ( 2017, 31, 7 ) ;
#129 = CALENDAR_DATE ( 2017, 31, 7 ) ;
#130 = PERSON_AND_ORGANIZATION_ROLE ( 'design_owner' ) ;
#131 = AXIS2_PLACEMENT_3D ( 'NONE', #13, #52, #200 ) ;
#132 = ORIENTED_EDGE ( 'NONE', *, *, #33, .T. ) ;
#133 = PERSON_AND_ORGANIZATION ( #219, #106 ) ;
#134 = DIRECTION ( 'NONE',  ( 2.775557561562891400E-016, 0.0000000000000000000, 1.000000000000000000 ) ) ;
#135 = VERTEX_POINT ( 'NONE', #147 ) ;
#136 = DIRECTION ( 'NONE',  ( -1.000000000000000000, 1.156964835872762600E-031, 1.700709290173340400E-016 ) ) ;
#137 = DATE_TIME_ROLE ( 'creation_date' ) ;
#138 = APPROVAL ( #197, 'UNSPECIFIED' ) ;
#139 = FACE_OUTER_BOUND ( 'NONE', #19, .T. ) ;
#140 = DIRECTION ( 'NONE',  ( -1.000000000000000000, -3.010774304068219900E-017, 1.036463361186990000E-048 ) ) ;
#141 = APPROVAL_ROLE ( '' ) ;
#142 = ORIENTED_EDGE ( 'NONE', *, *, #170, .T. ) ;
#143 = VERTEX_POINT ( 'NONE', #234 ) ;
#144 = ADVANCED_FACE ( 'NONE', ( #28, #172 ), #46, .T. ) ;
#145 = EDGE_CURVE ( 'NONE', #203, #203, #120, .T. ) ;
#146 = ORIENTED_EDGE ( 'NONE', *, *, #145, .T. ) ;
#147 = CARTESIAN_POINT ( 'NONE',  ( 4.645669291338583300, 0.5118110236220473300, -9.385298152480621200E-049 ) ) ;
#148 = DESIGN_CONTEXT ( 'detailed design', #157, 'design' ) ;
#149 = APPROVAL_ROLE ( '' ) ;
#150 = CARTESIAN_POINT ( 'NONE',  ( 2.834645669291338900, -5.452583385320415200E-017, 0.0000000000000000000 ) ) ;
#151 = AXIS2_PLACEMENT_3D ( 'NONE', #76, #229, #25 ) ;
#152 = PERSON_AND_ORGANIZATION ( #219, #106 ) ;
#153 = CC_DESIGN_DATE_AND_TIME_ASSIGNMENT ( #252, #72, ( #10 ) ) ;
#154 = LOCAL_TIME ( 10, 53, 25.00000000000000000, #213 ) ;
#155 = CIRCLE ( 'NONE', #173, 0.8031496062992125000 ) ;
#156 = DIRECTION ( 'NONE',  ( 3.401418580346680300E-016, 0.0000000000000000000, 1.000000000000000000 ) ) ;
#157 = APPLICATION_CONTEXT ( 'configuration controlled 3d designs of mechanical parts and assemblies' ) ;
#158 = DIRECTION ( 'NONE',  ( -1.000000000000000000, -3.010774304068219900E-017, -2.242077542919709900E-048 ) ) ;
#159 = CARTESIAN_POINT ( 'NONE',  ( 2.322834645669291700, -6.829619984160658000E-017, 3.249293342962423300E-048 ) ) ;
#160 = AXIS2_PLACEMENT_3D ( 'NONE', #114, #69, #184 ) ;
#161 = PERSON_AND_ORGANIZATION_ROLE ( 'creator' ) ;
#162 = VERTEX_POINT ( 'NONE', #6 ) ;
#163 = COORDINATED_UNIVERSAL_TIME_OFFSET ( 5, 0, .BEHIND. ) ;
#164 = VERTEX_POINT ( 'NONE', #81 ) ;
#165 = DIRECTION ( 'NONE',  ( 0.0000000000000000000, 1.000000000000000000, 0.0000000000000000000 ) ) ;
#166 = UNCERTAINTY_MEASURE_WITH_UNIT (LENGTH_MEASURE( 1.000000000000000100E-005 ), #21, 'distance_accuracy_value', 'NONE');
#167 = FACE_OUTER_BOUND ( 'NONE', #75, .T. ) ;
#168 = DIRECTION ( 'NONE',  ( 1.000000000000000000, 3.010774304068219900E-017, 0.0000000000000000000 ) ) ;
#169 = CARTESIAN_POINT ( 'NONE',  ( 2.322834645669291700, -6.993530863780532000E-017, 2.603987697485490100E-048 ) ) ;
#170 = EDGE_CURVE ( 'NONE', #164, #164, #35, .T. ) ;
#171 = PERSON_AND_ORGANIZATION ( #219, #106 ) ;
#172 = FACE_OUTER_BOUND ( 'NONE', #71, .T. ) ;
#173 = AXIS2_PLACEMENT_3D ( 'NONE', #211, #66, #3 ) ;
#174 = CARTESIAN_POINT ( 'NONE',  ( 0.0000000000000000000, 0.0000000000000000000, 0.0000000000000000000 ) ) ;
#175 = ORIENTED_EDGE ( 'NONE', *, *, #145, .F. ) ;
#176 = CARTESIAN_POINT ( 'NONE',  ( 3.740157480314960600, -2.726291692660200800E-017, 0.0000000000000000000 ) ) ;
#177 = DIRECTION ( 'NONE',  ( 1.000000000000000000, 3.010774304068219900E-017, 2.242077542919709900E-048 ) ) ;
#178 = EDGE_LOOP ( 'NONE', ( #132 ) ) ;
#179 = AXIS2_PLACEMENT_3D ( 'NONE', #217, #140, #86 ) ;
#180 = EDGE_CURVE ( 'NONE', #121, #121, #249, .T. ) ;
#181 = APPROVAL_PERSON_ORGANIZATION ( #193, #194, #112 ) ;
#182 = ADVANCED_FACE ( 'NONE', ( #188, #139 ), #204, .T. ) ;
#183 = CARTESIAN_POINT ( 'NONE',  ( 2.322834645669291700, -6.829619984160658000E-017, 1.011364214328443500E-047 ) ) ;
#184 = DIRECTION ( 'NONE',  ( -3.010774304068219900E-017, 1.000000000000000000, 0.0000000000000000000 ) ) ;
#185 = FACE_OUTER_BOUND ( 'NONE', #178, .T. ) ;
#186 = CONICAL_SURFACE ( 'NONE', #48, 0.9842519685039370400, 0.6055446636049699500 ) ;
#187 = DATE_AND_TIME ( #212, #53 ) ;
#188 = FACE_BOUND ( 'NONE', #24, .T. ) ;
#189 = EDGE_LOOP ( 'NONE', ( #59 ) ) ;
#190 = FACE_OUTER_BOUND ( 'NONE', #31, .T. ) ;
#191 = FACE_OUTER_BOUND ( 'NONE', #244, .T. ) ;
#192 = CIRCLE ( 'NONE', #87, 0.9842519685039370400 ) ;
#193 = PERSON_AND_ORGANIZATION ( #219, #106 ) ;
#194 = APPROVAL ( #224, 'UNSPECIFIED' ) ;
#195 = DIRECTION ( 'NONE',  ( 1.000000000000000000, 0.0000000000000000000, 0.0000000000000000000 ) ) ;
#196 = DIRECTION ( 'NONE',  ( 0.0000000000000000000, 1.000000000000000000, 0.0000000000000000000 ) ) ;
#197 = APPROVAL_STATUS ( 'not_yet_approved' ) ;
#198 = FACE_OUTER_BOUND ( 'NONE', #237, .T. ) ;
#199 = ORIENTED_EDGE ( 'NONE', *, *, #5, .F. ) ;
#200 = DIRECTION ( 'NONE',  ( -7.374026685374179300E-033, 0.0000000000000000000, 1.000000000000000000 ) ) ;
#201 = ADVANCED_FACE ( 'NONE', ( #29, #190 ), #54, .T. ) ;
#202 = PERSON_AND_ORGANIZATION ( #219, #106 ) ;
#203 = VERTEX_POINT ( 'NONE', #208 ) ;
#204 = PLANE ( 'NONE',  #119 ) ;
#205 = CARTESIAN_POINT ( 'NONE',  ( 3.740157480314960600, -2.726291692660200800E-017, 0.0000000000000000000 ) ) ;
#206 = SHAPE_DEFINITION_REPRESENTATION ( #215, #74 ) ;
#207 = APPROVAL_DATE_TIME ( #45, #250 ) ;
#208 = CARTESIAN_POINT ( 'NONE',  ( 4.645669291338583300, 0.6299212598425196800, 0.0000000000000000000 ) ) ;
#209 = EDGE_LOOP ( 'NONE', ( #223 ) ) ;
#210 = FACE_BOUND ( 'NONE', #209, .T. ) ;
#211 = CARTESIAN_POINT ( 'NONE',  ( 2.322834645669291700, -6.993530863780532000E-017, -9.776842506057936200E-049 ) ) ;
#212 = CALENDAR_DATE ( 2017, 31, 7 ) ;
#213 = COORDINATED_UNIVERSAL_TIME_OFFSET ( 5, 0, .BEHIND. ) ;
#214 = CARTESIAN_POINT ( 'NONE',  ( 4.645669291338583300, 0.5708661417322835600, -1.398172608694838700E-016 ) ) ;
#215 = PRODUCT_DEFINITION_SHAPE ( 'NONE', 'NONE',  #96 ) ;
#216 = LOCAL_TIME ( 10, 53, 25.00000000000000000, #126 ) ;
#217 = CARTESIAN_POINT ( 'NONE',  ( 4.645669291338583300, -7.582401355855259500E-033, -9.385298152480621200E-049 ) ) ;
#218 = ORIENTED_EDGE ( 'NONE', *, *, #239, .T. ) ;
#219 = PERSON ( 'UNSPECIFIED', 'UNSPECIFIED', 'UNSPECIFIED', ('UNSPECIFIED'), ('UNSPECIFIED'), ('UNSPECIFIED') ) ;
#220 =( LENGTH_UNIT ( ) NAMED_UNIT ( * ) SI_UNIT ( $, .METRE. ) );
#221 = MANIFOLD_SOLID_BREP ( '1', #60 ) ;
#222 = DIRECTION ( 'NONE',  ( 0.0000000000000000000, 0.0000000000000000000, 1.000000000000000000 ) ) ;
#223 = ORIENTED_EDGE ( 'NONE', *, *, #30, .T. ) ;
#224 = APPROVAL_STATUS ( 'not_yet_approved' ) ;
#225 = FACE_BOUND ( 'NONE', #51, .T. ) ;
#226 = DIRECTION ( 'NONE',  ( 1.000000000000000000, 3.010774304068219900E-017, -1.036463361186990000E-048 ) ) ;
#227 = AXIS2_PLACEMENT_3D ( 'NONE', #205, #168, #11 ) ;
#228 = PERSON_AND_ORGANIZATION ( #219, #106 ) ;
#229 = DIRECTION ( 'NONE',  ( 1.000000000000000000, 3.010774304068219900E-017, -8.418027106910899500E-049 ) ) ;
#230 =( NAMED_UNIT ( * ) SI_UNIT ( $, .STERADIAN. ) SOLID_ANGLE_UNIT ( ) );
#231 = ORIENTED_EDGE ( 'NONE', *, *, #33, .F. ) ;
#232 = CYLINDRICAL_SURFACE ( 'NONE', #127, 0.5118110236220473300 ) ;
#233 = DATE_AND_TIME ( #129, #50 ) ;
#234 = CARTESIAN_POINT ( 'NONE',  ( -2.418102196968176400E-017, 0.8031496062992123900, 9.776842506057936200E-049 ) ) ;
#235 = PRODUCT ( '581229211', '581229211', '', ( #58 ) ) ;
#236 = CARTESIAN_POINT ( 'NONE',  ( 4.645669291338583300, -7.582401355855259500E-033, 0.0000000000000000000 ) ) ;
#237 = EDGE_LOOP ( 'NONE', ( #15 ) ) ;
#238 = ORIENTED_EDGE ( 'NONE', *, *, #5, .T. ) ;
#239 = EDGE_CURVE ( 'NONE', #135, #135, #17, .T. ) ;
#240 =( NAMED_UNIT ( * ) PLANE_ANGLE_UNIT ( ) SI_UNIT ( $, .RADIAN. ) );
#241 = PRODUCT_DEFINITION_FORMATION_WITH_SPECIFIED_SOURCE ( 'ANY', '', #235, .NOT_KNOWN. ) ;
#242 = APPROVAL_PERSON_ORGANIZATION ( #171, #250, #149 ) ;
#243 = CARTESIAN_POINT ( 'NONE',  ( 2.322834645669291700, 0.8031496062992123900, -9.776842506057936200E-049 ) ) ;
#244 = EDGE_LOOP ( 'NONE', ( #88 ) ) ;
#245 = CARTESIAN_POINT ( 'NONE',  ( -2.963360535500216600E-017, 0.9842519685039369200, -2.603987697485490100E-048 ) ) ;
#246 = CC_DESIGN_PERSON_AND_ORGANIZATION_ASSIGNMENT ( #43, #26, ( #96 ) ) ;
#247 = DIRECTION ( 'NONE',  ( -1.000000000000000000, 5.777789833161706500E-032, 1.387778780781445700E-016 ) ) ;
#248 = APPROVAL_DATE_TIME ( #108, #194 ) ;
#249 = CIRCLE ( 'NONE', #160, 0.9842519685039370400 ) ;
#250 = APPROVAL ( #90, 'UNSPECIFIED' ) ;
#251 = COORDINATED_UNIVERSAL_TIME_OFFSET ( 5, 0, .BEHIND. ) ;
#252 = DATE_AND_TIME ( #128, #216 ) ;
ENDSEC;
END-ISO-10303-21;
