ISO-10303-21;
HEADER;
FILE_DESCRIPTION (( 'STEP AP203' ),
    '1' );
FILE_NAME ('581229130.STEP',
    '2017-07-31T14:31:16',
    ( '' ),
    ( '' ),
    'SwSTEP 2.0',
    'SolidWorks 2017',
    '' );
FILE_SCHEMA (( 'CONFIG_CONTROL_DESIGN' ));
ENDSEC;

DATA;
#1 = FACE_OUTER_BOUND ( 'NONE', #222, .T. ) ;
#2 = AXIS2_PLACEMENT_3D ( 'NONE', #203, #97, #171 ) ;
#3 = FACE_OUTER_BOUND ( 'NONE', #227, .T. ) ;
#4 = LOCAL_TIME ( 10, 31, 16.00000000000000000, #133 ) ;
#5 = CC_DESIGN_PERSON_AND_ORGANIZATION_ASSIGNMENT ( #174, #223, ( #182 ) ) ;
#6 = DIRECTION ( 'NONE',  ( 1.000000000000000000, 0.0000000000000000000, 0.0000000000000000000 ) ) ;
#7 = EDGE_LOOP ( 'NONE', ( #68 ) ) ;
#8 = ADVANCED_FACE ( 'NONE', ( #131, #42 ), #84, .T. ) ;
#9 = AXIS2_PLACEMENT_3D ( 'NONE', #34, #54, #35 ) ;
#10 = EDGE_CURVE ( 'NONE', #148, #148, #93, .T. ) ;
#11 = VERTEX_POINT ( 'NONE', #175 ) ;
#12 = ADVANCED_FACE ( 'NONE', ( #101, #213 ), #173, .T. ) ;
#13 = ORIENTED_EDGE ( 'NONE', *, *, #234, .F. ) ;
#14 = EDGE_LOOP ( 'NONE', ( #52 ) ) ;
#15 = ADVANCED_FACE ( 'NONE', ( #55, #39 ), #104, .F. ) ;
#16 = DATE_AND_TIME ( #122, #144 ) ;
#17 = VERTEX_POINT ( 'NONE', #31 ) ;
#18 = CC_DESIGN_DATE_AND_TIME_ASSIGNMENT ( #37, #209, ( #20 ) ) ;
#19 = APPLICATION_CONTEXT ( 'configuration controlled 3d designs of mechanical parts and assemblies' ) ;
#20 = SECURITY_CLASSIFICATION ( '', '', #161 ) ;
#21 = EDGE_LOOP ( 'NONE', ( #45 ) ) ;
#22 = EDGE_LOOP ( 'NONE', ( #150 ) ) ;
#23 = ORGANIZATION ( 'UNSPECIFIED', 'UNSPECIFIED', '' ) ;
#24 = DIRECTION ( 'NONE',  ( 4.336808689942017700E-016, 0.0000000000000000000, 1.000000000000000000 ) ) ;
#25 = DIRECTION ( 'NONE',  ( -1.000000000000000000, -0.0000000000000000000, -0.0000000000000000000 ) ) ;
#26 = DIMENSIONAL_EXPONENTS ( 1.000000000000000000, 0.0000000000000000000, 0.0000000000000000000, 0.0000000000000000000, 0.0000000000000000000, 0.0000000000000000000, 0.0000000000000000000 ) ;
#27 = DIRECTION ( 'NONE',  ( 0.0000000000000000000, 0.0000000000000000000, -1.000000000000000000 ) ) ;
#28 = FACE_BOUND ( 'NONE', #21, .T. ) ;
#29 = CC_DESIGN_APPROVAL ( #192, ( #20 ) ) ;
#30 = CARTESIAN_POINT ( 'NONE',  ( 1.692913385826771800, -5.422895136472613400E-064, -4.063912073043653600E-048 ) ) ;
#31 = CARTESIAN_POINT ( 'NONE',  ( 3.622047244094488400, 0.0000000000000000000, -0.3937007874015748300 ) ) ;
#32 = AXIS2_PLACEMENT_3D ( 'NONE', #225, #199, #24 ) ;
#33 = EDGE_LOOP ( 'NONE', ( #125 ) ) ;
#34 = CARTESIAN_POINT ( 'NONE',  ( 3.622047244094488400, 0.0000000000000000000, 0.0000000000000000000 ) ) ;
#35 = DIRECTION ( 'NONE',  ( 0.0000000000000000000, 0.0000000000000000000, -1.000000000000000000 ) ) ;
#36 = ORIENTED_EDGE ( 'NONE', *, *, #236, .F. ) ;
#37 = DATE_AND_TIME ( #130, #237 ) ;
#38 = AXIS2_PLACEMENT_3D ( 'NONE', #220, #99, #137 ) ;
#39 = FACE_OUTER_BOUND ( 'NONE', #157, .T. ) ;
#40 = PERSON_AND_ORGANIZATION ( #179, #23 ) ;
#41 = AXIS2_PLACEMENT_3D ( 'NONE', #207, #168, #120 ) ;
#42 = FACE_BOUND ( 'NONE', #33, .T. ) ;
#43 = SHAPE_DEFINITION_REPRESENTATION ( #145, #92 ) ;
#44 = APPROVAL_PERSON_ORGANIZATION ( #169, #198, #64 ) ;
#45 = ORIENTED_EDGE ( 'NONE', *, *, #10, .T. ) ;
#46 = APPROVAL_ROLE ( '' ) ;
#47 = PERSON_AND_ORGANIZATION ( #179, #23 ) ;
#48 = CC_DESIGN_PERSON_AND_ORGANIZATION_ASSIGNMENT ( #47, #66, ( #50 ) ) ;
#49 = DIRECTION ( 'NONE',  ( 1.000000000000000000, 0.0000000000000000000, 0.0000000000000000000 ) ) ;
#50 = PRODUCT_DEFINITION ( 'UNKNOWN', '', #182, #238 ) ;
#51 = DIRECTION ( 'NONE',  ( 0.0000000000000000000, 0.0000000000000000000, -1.000000000000000000 ) ) ;
#52 = ORIENTED_EDGE ( 'NONE', *, *, #62, .F. ) ;
#53 = CYLINDRICAL_SURFACE ( 'NONE', #69, 0.6299212598425196800 ) ;
#54 = DIRECTION ( 'NONE',  ( -1.000000000000000000, -0.0000000000000000000, -0.0000000000000000000 ) ) ;
#55 = FACE_BOUND ( 'NONE', #94, .T. ) ;
#56 = DIRECTION ( 'NONE',  ( 0.0000000000000000000, 1.000000000000000000, -2.449212707644750600E-016 ) ) ;
#57 = PLANE ( 'NONE',  #244 ) ;
#58 = FACE_OUTER_BOUND ( 'NONE', #186, .T. ) ;
#59 = AXIS2_PLACEMENT_3D ( 'NONE', #155, #190, #208 ) ;
#60 = FACE_OUTER_BOUND ( 'NONE', #14, .T. ) ;
#61 = PERSON_AND_ORGANIZATION ( #179, #23 ) ;
#62 = EDGE_CURVE ( 'NONE', #140, #140, #204, .T. ) ;
#63 = FACE_OUTER_BOUND ( 'NONE', #7, .T. ) ;
#64 = APPROVAL_ROLE ( '' ) ;
#65 = EDGE_LOOP ( 'NONE', ( #163 ) ) ;
#66 = PERSON_AND_ORGANIZATION_ROLE ( 'creator' ) ;
#67 = EDGE_CURVE ( 'NONE', #87, #87, #183, .T. ) ;
#68 = ORIENTED_EDGE ( 'NONE', *, *, #86, .T. ) ;
#69 = AXIS2_PLACEMENT_3D ( 'NONE', #156, #6, #187 ) ;
#70 = CALENDAR_DATE ( 2017, 31, 7 ) ;
#71 = CIRCLE ( 'NONE', #38, 0.3937007874015748300 ) ;
#72 = DIRECTION ( 'NONE',  ( 1.000000000000000000, 0.0000000000000000000, 0.0000000000000000000 ) ) ;
#73 = CC_DESIGN_APPROVAL ( #147, ( #182 ) ) ;
#74 = DIRECTION ( 'NONE',  ( 1.000000000000000000, 0.0000000000000000000, 0.0000000000000000000 ) ) ;
#75 = DIRECTION ( 'NONE',  ( 0.0000000000000000000, 0.0000000000000000000, -1.000000000000000000 ) ) ;
#76 = AXIS2_PLACEMENT_3D ( 'NONE', #151, #25, #75 ) ;
#77 = CARTESIAN_POINT ( 'NONE',  ( 0.0000000000000000000, 0.0000000000000000000, 0.0000000000000000000 ) ) ;
#78 = AXIS2_PLACEMENT_3D ( 'NONE', #239, #235, #98 ) ;
#79 = DIRECTION ( 'NONE',  ( 1.000000000000000000, 0.0000000000000000000, 0.0000000000000000000 ) ) ;
#80 =( NAMED_UNIT ( * ) SI_UNIT ( $, .STERADIAN. ) SOLID_ANGLE_UNIT ( ) );
#81 = CC_DESIGN_PERSON_AND_ORGANIZATION_ASSIGNMENT ( #61, #143, ( #182 ) ) ;
#82 = LOCAL_TIME ( 10, 31, 16.00000000000000000, #165 ) ;
#83 = EDGE_LOOP ( 'NONE', ( #117 ) ) ;
#84 = PLANE ( 'NONE',  #41 ) ;
#85 = CALENDAR_DATE ( 2017, 31, 7 ) ;
#86 = EDGE_CURVE ( 'NONE', #17, #17, #71, .T. ) ;
#87 = VERTEX_POINT ( 'NONE', #216 ) ;
#88 = CIRCLE ( 'NONE', #232, 0.2755905511811023700 ) ;
#89 = FACE_OUTER_BOUND ( 'NONE', #22, .T. ) ;
#90 = PRODUCT_RELATED_PRODUCT_CATEGORY ( 'detail', '', ( #164 ) ) ;
#91 = CYLINDRICAL_SURFACE ( 'NONE', #96, 0.3937007874015748300 ) ;
#92 = ADVANCED_BREP_SHAPE_REPRESENTATION ( '581229130', ( #158, #59 ), #153 ) ;
#93 = CIRCLE ( 'NONE', #9, 0.2755905511811023700 ) ;
#94 = EDGE_LOOP ( 'NONE', ( #177 ) ) ;
#95 = EDGE_LOOP ( 'NONE', ( #111 ) ) ;
#96 = AXIS2_PLACEMENT_3D ( 'NONE', #215, #167, #129 ) ;
#97 = DIRECTION ( 'NONE',  ( -1.000000000000000000, 0.0000000000000000000, 0.0000000000000000000 ) ) ;
#98 = DIRECTION ( 'NONE',  ( 0.0000000000000000000, 0.0000000000000000000, -1.000000000000000000 ) ) ;
#99 = DIRECTION ( 'NONE',  ( -1.000000000000000000, -0.0000000000000000000, -0.0000000000000000000 ) ) ;
#100 = APPROVAL_DATE_TIME ( #16, #198 ) ;
#101 = FACE_BOUND ( 'NONE', #95, .T. ) ;
#102 =( NAMED_UNIT ( * ) PLANE_ANGLE_UNIT ( ) SI_UNIT ( $, .RADIAN. ) );
#103 = ADVANCED_FACE ( 'NONE', ( #28, #176 ), #57, .T. ) ;
#104 = CONICAL_SURFACE ( 'NONE', #121, 0.5118110236220473300, 0.5404195002705845000 ) ;
#105 = VERTEX_POINT ( 'NONE', #228 ) ;
#106 = CC_DESIGN_SECURITY_CLASSIFICATION ( #20, ( #182 ) ) ;
#107 = CARTESIAN_POINT ( 'NONE',  ( 2.086614173228346300, 0.3937007874015748800, -9.642569715136814300E-017 ) ) ;
#108 = APPLICATION_CONTEXT ( 'configuration controlled 3d designs of mechanical parts and assemblies' ) ;
#109 = APPROVAL_DATE_TIME ( #139, #147 ) ;
#110 = APPROVAL_PERSON_ORGANIZATION ( #40, #192, #233 ) ;
#111 = ORIENTED_EDGE ( 'NONE', *, *, #234, .T. ) ;
#112 = DIRECTION ( 'NONE',  ( 5.337610695313251400E-016, 0.0000000000000000000, 1.000000000000000000 ) ) ;
#113 = CC_DESIGN_APPROVAL ( #198, ( #50 ) ) ;
#114 = DIRECTION ( 'NONE',  ( -1.000000000000000000, -0.0000000000000000000, -0.0000000000000000000 ) ) ;
#115 = DIRECTION ( 'NONE',  ( -1.000000000000000000, 3.561260991840302600E-032, 2.668805347656626200E-016 ) ) ;
#116 = DIRECTION ( 'NONE',  ( 0.0000000000000000000, 0.0000000000000000000, -1.000000000000000000 ) ) ;
#117 = ORIENTED_EDGE ( 'NONE', *, *, #229, .T. ) ;
#118 = DATE_AND_TIME ( #178, #206 ) ;
#119 = ADVANCED_FACE ( 'NONE', ( #3, #196 ), #53, .T. ) ;
#120 = DIRECTION ( 'NONE',  ( -0.0000000000000000000, 0.0000000000000000000, 1.000000000000000000 ) ) ;
#121 = AXIS2_PLACEMENT_3D ( 'NONE', #30, #115, #112 ) ;
#122 = CALENDAR_DATE ( 2017, 31, 7 ) ;
#123 = APPLICATION_PROTOCOL_DEFINITION ( 'international standard', 'config_control_design', 1994, #108 ) ;
#124 =( LENGTH_UNIT ( ) NAMED_UNIT ( * ) SI_UNIT ( $, .METRE. ) );
#125 = ORIENTED_EDGE ( 'NONE', *, *, #62, .T. ) ;
#126 = CC_DESIGN_PERSON_AND_ORGANIZATION_ASSIGNMENT ( #224, #159, ( #164 ) ) ;
#127 = VERTEX_POINT ( 'NONE', #107 ) ;
#128 = PERSON_AND_ORGANIZATION ( #179, #23 ) ;
#129 = DIRECTION ( 'NONE',  ( 0.0000000000000000000, 0.0000000000000000000, -1.000000000000000000 ) ) ;
#130 = CALENDAR_DATE ( 2017, 31, 7 ) ;
#131 = FACE_OUTER_BOUND ( 'NONE', #181, .T. ) ;
#132 = CARTESIAN_POINT ( 'NONE',  ( 0.0000000000000000000, 0.0000000000000000000, 0.0000000000000000000 ) ) ;
#133 = COORDINATED_UNIVERSAL_TIME_OFFSET ( 5, 0, .BEHIND. ) ;
#134 = APPROVAL_PERSON_ORGANIZATION ( #197, #147, #46 ) ;
#135 = CYLINDRICAL_SURFACE ( 'NONE', #78, 0.2755905511811023700 ) ;
#136 = AXIS2_PLACEMENT_3D ( 'NONE', #132, #74, #51 ) ;
#137 = DIRECTION ( 'NONE',  ( 0.0000000000000000000, 0.0000000000000000000, -1.000000000000000000 ) ) ;
#138 = ORIENTED_EDGE ( 'NONE', *, *, #229, .F. ) ;
#139 = DATE_AND_TIME ( #85, #4 ) ;
#140 = VERTEX_POINT ( 'NONE', #184 ) ;
#141 = FACE_OUTER_BOUND ( 'NONE', #166, .T. ) ;
#142 = APPROVAL_STATUS ( 'not_yet_approved' ) ;
#143 = PERSON_AND_ORGANIZATION_ROLE ( 'creator' ) ;
#144 = LOCAL_TIME ( 10, 31, 16.00000000000000000, #152 ) ;
#145 = PRODUCT_DEFINITION_SHAPE ( 'NONE', 'NONE',  #50 ) ;
#146 = ADVANCED_FACE ( 'NONE', ( #58, #60 ), #242, .F. ) ;
#147 = APPROVAL ( #149, 'UNSPECIFIED' ) ;
#148 = VERTEX_POINT ( 'NONE', #200 ) ;
#149 = APPROVAL_STATUS ( 'not_yet_approved' ) ;
#150 = ORIENTED_EDGE ( 'NONE', *, *, #210, .T. ) ;
#151 = CARTESIAN_POINT ( 'NONE',  ( 1.692913385826771800, 0.0000000000000000000, 0.0000000000000000000 ) ) ;
#152 = COORDINATED_UNIVERSAL_TIME_OFFSET ( 5, 0, .BEHIND. ) ;
#153 =( GEOMETRIC_REPRESENTATION_CONTEXT ( 3 ) GLOBAL_UNCERTAINTY_ASSIGNED_CONTEXT ( ( #160 ) ) GLOBAL_UNIT_ASSIGNED_CONTEXT ( ( #185, #102, #80 ) ) REPRESENTATION_CONTEXT ( 'NONE', 'WORKASPACE' ) );
#154 = CIRCLE ( 'NONE', #136, 0.6299212598425196800 ) ;
#155 = CARTESIAN_POINT ( 'NONE',  ( 0.0000000000000000000, 0.0000000000000000000, 0.0000000000000000000 ) ) ;
#156 = CARTESIAN_POINT ( 'NONE',  ( 0.8464566929133858800, 0.0000000000000000000, 0.0000000000000000000 ) ) ;
#157 = EDGE_LOOP ( 'NONE', ( #245 ) ) ;
#158 = MANIFOLD_SOLID_BREP ( '1', #211 ) ;
#159 = PERSON_AND_ORGANIZATION_ROLE ( 'design_owner' ) ;
#160 = UNCERTAINTY_MEASURE_WITH_UNIT (LENGTH_MEASURE( 1.000000000000000100E-005 ), #185, 'distance_accuracy_value', 'NONE');
#161 = SECURITY_CLASSIFICATION_LEVEL ( 'unclassified' ) ;
#162 = CIRCLE ( 'NONE', #76, 0.5118110236220473300 ) ;
#163 = ORIENTED_EDGE ( 'NONE', *, *, #67, .F. ) ;
#164 = PRODUCT ( '581229130', '581229130', '', ( #247 ) ) ;
#165 = COORDINATED_UNIVERSAL_TIME_OFFSET ( 5, 0, .BEHIND. ) ;
#166 = EDGE_LOOP ( 'NONE', ( #13 ) ) ;
#167 = DIRECTION ( 'NONE',  ( 1.000000000000000000, 0.0000000000000000000, 0.0000000000000000000 ) ) ;
#168 = DIRECTION ( 'NONE',  ( -1.000000000000000000, 0.0000000000000000000, -0.0000000000000000000 ) ) ;
#169 = PERSON_AND_ORGANIZATION ( #179, #23 ) ;
#170 = CARTESIAN_POINT ( 'NONE',  ( 2.086614173228346300, 0.0000000000000000000, 0.0000000000000000000 ) ) ;
#171 = DIRECTION ( 'NONE',  ( 0.0000000000000000000, 1.000000000000000000, -2.449212707644750600E-016 ) ) ;
#172 = DIRECTION ( 'NONE',  ( 0.0000000000000000000, 0.0000000000000000000, -1.000000000000000000 ) ) ;
#173 = CONICAL_SURFACE ( 'NONE', #32, 0.6299212598425196800, 0.5404195002705842700 ) ;
#174 = PERSON_AND_ORGANIZATION ( #179, #23 ) ;
#175 = CARTESIAN_POINT ( 'NONE',  ( 1.692913385826771800, 0.0000000000000000000, -0.5118110236220473300 ) ) ;
#176 = FACE_OUTER_BOUND ( 'NONE', #191, .T. ) ;
#177 = ORIENTED_EDGE ( 'NONE', *, *, #210, .F. ) ;
#178 = CALENDAR_DATE ( 2017, 31, 7 ) ;
#179 = PERSON ( 'UNSPECIFIED', 'UNSPECIFIED', 'UNSPECIFIED', ('UNSPECIFIED'), ('UNSPECIFIED'), ('UNSPECIFIED') ) ;
#180 = DATE_TIME_ROLE ( 'creation_date' ) ;
#181 = EDGE_LOOP ( 'NONE', ( #138 ) ) ;
#182 = PRODUCT_DEFINITION_FORMATION_WITH_SPECIFIED_SOURCE ( 'ANY', '', #164, .NOT_KNOWN. ) ;
#183 = CIRCLE ( 'NONE', #249, 0.6299212598425196800 ) ;
#184 = CARTESIAN_POINT ( 'NONE',  ( 0.0000000000000000000, 0.0000000000000000000, -0.5118110236220473300 ) ) ;
#185 =( CONVERSION_BASED_UNIT ( 'INCH', #218 ) LENGTH_UNIT ( ) NAMED_UNIT ( #26 ) );
#186 = EDGE_LOOP ( 'NONE', ( #36 ) ) ;
#187 = DIRECTION ( 'NONE',  ( 0.0000000000000000000, 0.0000000000000000000, -1.000000000000000000 ) ) ;
#188 = DIRECTION ( 'NONE',  ( -1.000000000000000000, 0.0000000000000000000, 0.0000000000000000000 ) ) ;
#189 = CARTESIAN_POINT ( 'NONE',  ( 2.086614173228346300, 0.2755905511811023700, -6.749798800595770200E-017 ) ) ;
#190 = DIRECTION ( 'NONE',  ( 0.0000000000000000000, 0.0000000000000000000, 1.000000000000000000 ) ) ;
#191 = EDGE_LOOP ( 'NONE', ( #240 ) ) ;
#192 = APPROVAL ( #212, 'UNSPECIFIED' ) ;
#193 = CC_DESIGN_PERSON_AND_ORGANIZATION_ASSIGNMENT ( #128, #230, ( #20 ) ) ;
#194 = APPROVAL_DATE_TIME ( #118, #192 ) ;
#195 = VERTEX_POINT ( 'NONE', #189 ) ;
#196 = FACE_OUTER_BOUND ( 'NONE', #83, .T. ) ;
#197 = PERSON_AND_ORGANIZATION ( #179, #23 ) ;
#198 = APPROVAL ( #142, 'UNSPECIFIED' ) ;
#199 = DIRECTION ( 'NONE',  ( -1.000000000000000000, 4.701977403289151100E-032, 2.168404344971009400E-016 ) ) ;
#200 = CARTESIAN_POINT ( 'NONE',  ( 3.622047244094488400, 0.0000000000000000000, -0.2755905511811023700 ) ) ;
#201 = ADVANCED_FACE ( 'NONE', ( #63, #141 ), #91, .T. ) ;
#202 = DIRECTION ( 'NONE',  ( 0.0000000000000000000, 0.0000000000000000000, -1.000000000000000000 ) ) ;
#203 = CARTESIAN_POINT ( 'NONE',  ( 2.086614173228346300, 0.0000000000000000000, 0.0000000000000000000 ) ) ;
#204 = CIRCLE ( 'NONE', #226, 0.5118110236220473300 ) ;
#205 = CARTESIAN_POINT ( 'NONE',  ( 3.622047244094488400, 0.3346456692913386000, -8.196184257866299600E-017 ) ) ;
#206 = LOCAL_TIME ( 10, 31, 16.00000000000000000, #243 ) ;
#207 = CARTESIAN_POINT ( 'NONE',  ( 0.0000000000000000000, 0.5708661417322835600, -1.398172608694842600E-016 ) ) ;
#208 = DIRECTION ( 'NONE',  ( 1.000000000000000000, 0.0000000000000000000, 0.0000000000000000000 ) ) ;
#209 = DATE_TIME_ROLE ( 'classification_date' ) ;
#210 = EDGE_CURVE ( 'NONE', #195, #195, #88, .T. ) ;
#211 = CLOSED_SHELL ( 'NONE', ( #119, #8, #12, #146, #201, #15, #103, #214 ) ) ;
#212 = APPROVAL_STATUS ( 'not_yet_approved' ) ;
#213 = FACE_OUTER_BOUND ( 'NONE', #65, .T. ) ;
#214 = ADVANCED_FACE ( 'NONE', ( #1, #89 ), #135, .F. ) ;
#215 = CARTESIAN_POINT ( 'NONE',  ( 2.854330708661417100, 0.0000000000000000000, 0.0000000000000000000 ) ) ;
#216 = CARTESIAN_POINT ( 'NONE',  ( 1.692913385826771800, 0.0000000000000000000, -0.6299212598425196800 ) ) ;
#217 = CARTESIAN_POINT ( 'NONE',  ( 0.8464566929133858800, 0.0000000000000000000, 0.0000000000000000000 ) ) ;
#218 = LENGTH_MEASURE_WITH_UNIT ( LENGTH_MEASURE( 0.02539999999999999900 ), #124 );
#219 = CARTESIAN_POINT ( 'NONE',  ( 1.692913385826771800, 0.0000000000000000000, 0.0000000000000000000 ) ) ;
#220 = CARTESIAN_POINT ( 'NONE',  ( 3.622047244094488400, 0.0000000000000000000, 0.0000000000000000000 ) ) ;
#221 = AXIS2_PLACEMENT_3D ( 'NONE', #217, #79, #202 ) ;
#222 = EDGE_LOOP ( 'NONE', ( #250 ) ) ;
#223 = PERSON_AND_ORGANIZATION_ROLE ( 'design_supplier' ) ;
#224 = PERSON_AND_ORGANIZATION ( #179, #23 ) ;
#225 = CARTESIAN_POINT ( 'NONE',  ( 1.692913385826771800, -1.803503999612514100E-064, -8.317194179190902400E-049 ) ) ;
#226 = AXIS2_PLACEMENT_3D ( 'NONE', #77, #49, #27 ) ;
#227 = EDGE_LOOP ( 'NONE', ( #246 ) ) ;
#228 = CARTESIAN_POINT ( 'NONE',  ( 0.0000000000000000000, 0.0000000000000000000, -0.6299212598425196800 ) ) ;
#229 = EDGE_CURVE ( 'NONE', #105, #105, #154, .T. ) ;
#230 = PERSON_AND_ORGANIZATION_ROLE ( 'classification_officer' ) ;
#231 = CIRCLE ( 'NONE', #2, 0.3937007874015748800 ) ;
#232 = AXIS2_PLACEMENT_3D ( 'NONE', #170, #188, #56 ) ;
#233 = APPROVAL_ROLE ( '' ) ;
#234 = EDGE_CURVE ( 'NONE', #127, #127, #231, .T. ) ;
#235 = DIRECTION ( 'NONE',  ( 1.000000000000000000, 0.0000000000000000000, 0.0000000000000000000 ) ) ;
#236 = EDGE_CURVE ( 'NONE', #11, #11, #162, .T. ) ;
#237 = LOCAL_TIME ( 10, 31, 16.00000000000000000, #252 ) ;
#238 = DESIGN_CONTEXT ( 'detailed design', #19, 'design' ) ;
#239 = CARTESIAN_POINT ( 'NONE',  ( 2.854330708661417100, 0.0000000000000000000, 0.0000000000000000000 ) ) ;
#240 = ORIENTED_EDGE ( 'NONE', *, *, #86, .F. ) ;
#241 = CC_DESIGN_DATE_AND_TIME_ASSIGNMENT ( #251, #180, ( #50 ) ) ;
#242 = CYLINDRICAL_SURFACE ( 'NONE', #221, 0.5118110236220473300 ) ;
#243 = COORDINATED_UNIVERSAL_TIME_OFFSET ( 5, 0, .BEHIND. ) ;
#244 = AXIS2_PLACEMENT_3D ( 'NONE', #205, #72, #116 ) ;
#245 = ORIENTED_EDGE ( 'NONE', *, *, #236, .T. ) ;
#246 = ORIENTED_EDGE ( 'NONE', *, *, #67, .T. ) ;
#247 = MECHANICAL_CONTEXT ( 'NONE', #108, 'mechanical' ) ;
#248 = APPLICATION_PROTOCOL_DEFINITION ( 'international standard', 'config_control_design', 1994, #19 ) ;
#249 = AXIS2_PLACEMENT_3D ( 'NONE', #219, #114, #172 ) ;
#250 = ORIENTED_EDGE ( 'NONE', *, *, #10, .F. ) ;
#251 = DATE_AND_TIME ( #70, #82 ) ;
#252 = COORDINATED_UNIVERSAL_TIME_OFFSET ( 5, 0, .BEHIND. ) ;
ENDSEC;
END-ISO-10303-21;
