ISO-10303-21;
HEADER;
FILE_DESCRIPTION (( 'STEP AP203' ),
    '1' );
FILE_NAME ('581229101.STEP',
    '2017-07-31T14:28:30',
    ( '' ),
    ( '' ),
    'SwSTEP 2.0',
    'SolidWorks 2017',
    '' );
FILE_SCHEMA (( 'CONFIG_CONTROL_DESIGN' ));
ENDSEC;

DATA;
#1 =( GEOMETRIC_REPRESENTATION_CONTEXT ( 3 ) GLOBAL_UNCERTAINTY_ASSIGNED_CONTEXT ( ( #146 ) ) GLOBAL_UNIT_ASSIGNED_CONTEXT ( ( #10, #151, #168 ) ) REPRESENTATION_CONTEXT ( 'NONE', 'WORKASPACE' ) );
#2 = AXIS2_PLACEMENT_3D ( 'NONE', #163, #41, #251 ) ;
#3 = SECURITY_CLASSIFICATION_LEVEL ( 'unclassified' ) ;
#4 = SHAPE_DEFINITION_REPRESENTATION ( #55, #58 ) ;
#5 = CARTESIAN_POINT ( 'NONE',  ( 0.0000000000000000000, 0.0000000000000000000, -0.3740157480314960600 ) ) ;
#6 = PERSON_AND_ORGANIZATION ( #248, #120 ) ;
#7 = ORIENTED_EDGE ( 'NONE', *, *, #167, .T. ) ;
#8 = DIRECTION ( 'NONE',  ( 0.0000000000000000000, 1.000000000000000000, -2.449212707644750100E-016 ) ) ;
#9 = CIRCLE ( 'NONE', #2, 0.4921259842519685200 ) ;
#10 =( CONVERSION_BASED_UNIT ( 'INCH', #22 ) LENGTH_UNIT ( ) NAMED_UNIT ( #229 ) );
#11 = EDGE_CURVE ( 'NONE', #152, #152, #60, .T. ) ;
#12 = DIRECTION ( 'NONE',  ( 0.0000000000000000000, 0.0000000000000000000, -1.000000000000000000 ) ) ;
#13 = PLANE ( 'NONE',  #205 ) ;
#14 = AXIS2_PLACEMENT_3D ( 'NONE', #145, #24, #97 ) ;
#15 = EDGE_LOOP ( 'NONE', ( #64 ) ) ;
#16 = FACE_OUTER_BOUND ( 'NONE', #185, .T. ) ;
#17 = APPLICATION_PROTOCOL_DEFINITION ( 'international standard', 'config_control_design', 1994, #177 ) ;
#18 = PERSON_AND_ORGANIZATION ( #248, #120 ) ;
#19 = DIRECTION ( 'NONE',  ( 0.0000000000000000000, 0.0000000000000000000, -1.000000000000000000 ) ) ;
#20 = CIRCLE ( 'NONE', #68, 0.2755905511811023700 ) ;
#21 = DIRECTION ( 'NONE',  ( 5.551115123125781700E-016, 0.0000000000000000000, 1.000000000000000000 ) ) ;
#22 = LENGTH_MEASURE_WITH_UNIT ( LENGTH_MEASURE( 0.02539999999999999900 ), #56 );
#23 = EDGE_LOOP ( 'NONE', ( #134 ) ) ;
#24 = DIRECTION ( 'NONE',  ( 1.000000000000000000, 0.0000000000000000000, 0.0000000000000000000 ) ) ;
#25 = DIRECTION ( 'NONE',  ( -1.000000000000000000, -0.0000000000000000000, -0.0000000000000000000 ) ) ;
#26 = PERSON_AND_ORGANIZATION_ROLE ( 'creator' ) ;
#27 = DIRECTION ( 'NONE',  ( 1.000000000000000000, 0.0000000000000000000, 0.0000000000000000000 ) ) ;
#28 = DESIGN_CONTEXT ( 'detailed design', #105, 'design' ) ;
#29 = ADVANCED_FACE ( 'NONE', ( #81, #92 ), #178, .T. ) ;
#30 = EDGE_CURVE ( 'NONE', #85, #85, #43, .T. ) ;
#31 = DIRECTION ( 'NONE',  ( -1.000000000000000000, 3.851859888774471200E-032, 2.775557561562891400E-016 ) ) ;
#32 = ORIENTED_EDGE ( 'NONE', *, *, #206, .F. ) ;
#33 = DIRECTION ( 'NONE',  ( -1.000000000000000000, 0.0000000000000000000, 0.0000000000000000000 ) ) ;
#34 = CC_DESIGN_PERSON_AND_ORGANIZATION_ASSIGNMENT ( #18, #26, ( #237 ) ) ;
#35 = PERSON_AND_ORGANIZATION ( #248, #120 ) ;
#36 = DIRECTION ( 'NONE',  ( 0.0000000000000000000, 0.0000000000000000000, -1.000000000000000000 ) ) ;
#37 = VERTEX_POINT ( 'NONE', #196 ) ;
#38 = FACE_OUTER_BOUND ( 'NONE', #250, .T. ) ;
#39 = ADVANCED_FACE ( 'NONE', ( #186, #38 ), #44, .T. ) ;
#40 = FACE_OUTER_BOUND ( 'NONE', #193, .T. ) ;
#41 = DIRECTION ( 'NONE',  ( 1.000000000000000000, 0.0000000000000000000, 0.0000000000000000000 ) ) ;
#42 = DATE_AND_TIME ( #154, #108 ) ;
#43 = CIRCLE ( 'NONE', #190, 0.3937007874015748300 ) ;
#44 = CONICAL_SURFACE ( 'NONE', #148, 0.4921259842519686300, 0.3947911196997619400 ) ;
#45 = COORDINATED_UNIVERSAL_TIME_OFFSET ( 5, 0, .BEHIND. ) ;
#46 = AXIS2_PLACEMENT_3D ( 'NONE', #162, #27, #114 ) ;
#47 = APPROVAL_STATUS ( 'not_yet_approved' ) ;
#48 = APPROVAL_PERSON_ORGANIZATION ( #72, #171, #201 ) ;
#49 = ADVANCED_FACE ( 'NONE', ( #235, #220 ), #214, .T. ) ;
#50 = CARTESIAN_POINT ( 'NONE',  ( 1.574803149606299300, 0.0000000000000000000, -0.4921259842519685200 ) ) ;
#51 = CC_DESIGN_DATE_AND_TIME_ASSIGNMENT ( #116, #182, ( #252 ) ) ;
#52 = APPROVAL_DATE_TIME ( #234, #78 ) ;
#53 = ADVANCED_FACE ( 'NONE', ( #210, #84 ), #160, .F. ) ;
#54 = AXIS2_PLACEMENT_3D ( 'NONE', #115, #80, #93 ) ;
#55 = PRODUCT_DEFINITION_SHAPE ( 'NONE', 'NONE',  #252 ) ;
#56 =( LENGTH_UNIT ( ) NAMED_UNIT ( * ) SI_UNIT ( $, .METRE. ) );
#57 = DIRECTION ( 'NONE',  ( -1.000000000000000000, -0.0000000000000000000, -0.0000000000000000000 ) ) ;
#58 = ADVANCED_BREP_SHAPE_REPRESENTATION ( '581229101', ( #136, #188 ), #1 ) ;
#59 = EDGE_CURVE ( 'NONE', #113, #113, #9, .T. ) ;
#60 = CIRCLE ( 'NONE', #166, 0.3740157480314960600 ) ;
#61 = CYLINDRICAL_SURFACE ( 'NONE', #244, 0.3740157480314960600 ) ;
#62 = DIRECTION ( 'NONE',  ( 0.0000000000000000000, 0.0000000000000000000, 1.000000000000000000 ) ) ;
#63 = DIRECTION ( 'NONE',  ( 1.000000000000000000, 0.0000000000000000000, 0.0000000000000000000 ) ) ;
#64 = ORIENTED_EDGE ( 'NONE', *, *, #175, .T. ) ;
#65 = PERSON_AND_ORGANIZATION_ROLE ( 'creator' ) ;
#66 = COORDINATED_UNIVERSAL_TIME_OFFSET ( 5, 0, .BEHIND. ) ;
#67 = ADVANCED_FACE ( 'NONE', ( #16, #122 ), #94, .F. ) ;
#68 = AXIS2_PLACEMENT_3D ( 'NONE', #245, #57, #36 ) ;
#69 = CARTESIAN_POINT ( 'NONE',  ( 3.425196850393701400, 0.0000000000000000000, -0.3937007874015748300 ) ) ;
#70 = CIRCLE ( 'NONE', #141, 0.4921259842519685200 ) ;
#71 = AXIS2_PLACEMENT_3D ( 'NONE', #222, #198, #199 ) ;
#72 = PERSON_AND_ORGANIZATION ( #248, #120 ) ;
#73 = CC_DESIGN_DATE_AND_TIME_ASSIGNMENT ( #98, #240, ( #161 ) ) ;
#74 = AXIS2_PLACEMENT_3D ( 'NONE', #209, #135, #129 ) ;
#75 = COORDINATED_UNIVERSAL_TIME_OFFSET ( 5, 0, .BEHIND. ) ;
#76 = FACE_OUTER_BOUND ( 'NONE', #138, .T. ) ;
#77 = DIRECTION ( 'NONE',  ( 0.0000000000000000000, 0.0000000000000000000, -1.000000000000000000 ) ) ;
#78 = APPROVAL ( #103, 'UNSPECIFIED' ) ;
#79 = CC_DESIGN_PERSON_AND_ORGANIZATION_ASSIGNMENT ( #131, #241, ( #170 ) ) ;
#80 = DIRECTION ( 'NONE',  ( -1.000000000000000000, 1.333746498883126500E-031, 3.652049423109066800E-016 ) ) ;
#81 = FACE_OUTER_BOUND ( 'NONE', #224, .T. ) ;
#82 = EDGE_CURVE ( 'NONE', #127, #127, #207, .T. ) ;
#83 = APPROVAL_STATUS ( 'not_yet_approved' ) ;
#84 = FACE_OUTER_BOUND ( 'NONE', #189, .T. ) ;
#85 = VERTEX_POINT ( 'NONE', #69 ) ;
#86 = CARTESIAN_POINT ( 'NONE',  ( 1.811023622047244200, 0.2755905511811023700, -6.749798800595768900E-017 ) ) ;
#87 = ADVANCED_FACE ( 'NONE', ( #194, #76 ), #61, .F. ) ;
#88 = APPROVAL_PERSON_ORGANIZATION ( #216, #78, #221 ) ;
#89 = CC_DESIGN_APPROVAL ( #171, ( #252 ) ) ;
#90 = VERTEX_POINT ( 'NONE', #86 ) ;
#91 = CARTESIAN_POINT ( 'NONE',  ( 1.811023622047244200, 0.0000000000000000000, 0.0000000000000000000 ) ) ;
#92 = FACE_OUTER_BOUND ( 'NONE', #225, .T. ) ;
#93 = DIRECTION ( 'NONE',  ( 7.304098846218132700E-016, 0.0000000000000000000, 1.000000000000000000 ) ) ;
#94 = CYLINDRICAL_SURFACE ( 'NONE', #71, 0.2755905511811023700 ) ;
#95 = APPROVAL ( #47, 'UNSPECIFIED' ) ;
#96 = ORIENTED_EDGE ( 'NONE', *, *, #11, .T. ) ;
#97 = DIRECTION ( 'NONE',  ( 0.0000000000000000000, 0.0000000000000000000, -1.000000000000000000 ) ) ;
#98 = DATE_AND_TIME ( #174, #172 ) ;
#99 = CARTESIAN_POINT ( 'NONE',  ( 0.7874015748031496500, 0.0000000000000000000, 0.0000000000000000000 ) ) ;
#100 = AXIS2_PLACEMENT_3D ( 'NONE', #143, #25, #239 ) ;
#101 = CARTESIAN_POINT ( 'NONE',  ( 0.7874015748031496500, 0.0000000000000000000, 0.0000000000000000000 ) ) ;
#102 = ORIENTED_EDGE ( 'NONE', *, *, #175, .F. ) ;
#103 = APPROVAL_STATUS ( 'not_yet_approved' ) ;
#104 = CARTESIAN_POINT ( 'NONE',  ( 0.0000000000000000000, 0.0000000000000000000, 0.0000000000000000000 ) ) ;
#105 = APPLICATION_CONTEXT ( 'configuration controlled 3d designs of mechanical parts and assemblies' ) ;
#106 = CARTESIAN_POINT ( 'NONE',  ( 0.0000000000000000000, 0.0000000000000000000, 0.0000000000000000000 ) ) ;
#107 = PRODUCT_RELATED_PRODUCT_CATEGORY ( 'detail', '', ( #170 ) ) ;
#108 = LOCAL_TIME ( 10, 28, 30.00000000000000000, #226 ) ;
#109 = EDGE_LOOP ( 'NONE', ( #227 ) ) ;
#110 = DIRECTION ( 'NONE',  ( 0.0000000000000000000, 0.0000000000000000000, 1.000000000000000000 ) ) ;
#111 = VERTEX_POINT ( 'NONE', #218 ) ;
#112 = LOCAL_TIME ( 10, 28, 30.00000000000000000, #66 ) ;
#113 = VERTEX_POINT ( 'NONE', #243 ) ;
#114 = DIRECTION ( 'NONE',  ( 0.0000000000000000000, 0.0000000000000000000, -1.000000000000000000 ) ) ;
#115 = CARTESIAN_POINT ( 'NONE',  ( 1.574803149606299300, 2.191323536093030000E-063, 6.000257067242836700E-048 ) ) ;
#116 = DATE_AND_TIME ( #173, #125 ) ;
#117 = CIRCLE ( 'NONE', #74, 0.2755905511811023700 ) ;
#118 = DIRECTION ( 'NONE',  ( 1.000000000000000000, 0.0000000000000000000, 0.0000000000000000000 ) ) ;
#119 = PERSON_AND_ORGANIZATION_ROLE ( 'classification_officer' ) ;
#120 = ORGANIZATION ( 'UNSPECIFIED', 'UNSPECIFIED', '' ) ;
#121 = DATE_AND_TIME ( #169, #219 ) ;
#122 = FACE_OUTER_BOUND ( 'NONE', #217, .T. ) ;
#123 = CARTESIAN_POINT ( 'NONE',  ( 1.574803149606299300, 0.0000000000000000000, 0.0000000000000000000 ) ) ;
#124 = CC_DESIGN_SECURITY_CLASSIFICATION ( #161, ( #237 ) ) ;
#125 = LOCAL_TIME ( 10, 28, 30.00000000000000000, #45 ) ;
#126 = CC_DESIGN_PERSON_AND_ORGANIZATION_ASSIGNMENT ( #180, #65, ( #252 ) ) ;
#127 = VERTEX_POINT ( 'NONE', #133 ) ;
#128 = DIRECTION ( 'NONE',  ( -1.000000000000000000, 0.0000000000000000000, 0.0000000000000000000 ) ) ;
#129 = DIRECTION ( 'NONE',  ( 0.0000000000000000000, 1.000000000000000000, -2.449212707644750600E-016 ) ) ;
#130 = AXIS2_PLACEMENT_3D ( 'NONE', #99, #211, #202 ) ;
#131 = PERSON_AND_ORGANIZATION ( #248, #120 ) ;
#132 = PERSON_AND_ORGANIZATION ( #248, #120 ) ;
#133 = CARTESIAN_POINT ( 'NONE',  ( 1.574803149606299300, 0.0000000000000000000, -0.3740157480314960600 ) ) ;
#134 = ORIENTED_EDGE ( 'NONE', *, *, #167, .F. ) ;
#135 = DIRECTION ( 'NONE',  ( -1.000000000000000000, 0.0000000000000000000, 0.0000000000000000000 ) ) ;
#136 = MANIFOLD_SOLID_BREP ( '1', #147 ) ;
#137 = AXIS2_PLACEMENT_3D ( 'NONE', #91, #33, #8 ) ;
#138 = EDGE_LOOP ( 'NONE', ( #233 ) ) ;
#139 = CC_DESIGN_APPROVAL ( #95, ( #237 ) ) ;
#140 = EDGE_LOOP ( 'NONE', ( #96 ) ) ;
#141 = AXIS2_PLACEMENT_3D ( 'NONE', #123, #249, #12 ) ;
#142 = PLANE ( 'NONE',  #46 ) ;
#143 = CARTESIAN_POINT ( 'NONE',  ( 1.574803149606299300, 0.0000000000000000000, 0.0000000000000000000 ) ) ;
#144 = PERSON_AND_ORGANIZATION_ROLE ( 'design_supplier' ) ;
#145 = CARTESIAN_POINT ( 'NONE',  ( 2.618110236220472700, 0.0000000000000000000, 0.0000000000000000000 ) ) ;
#146 = UNCERTAINTY_MEASURE_WITH_UNIT (LENGTH_MEASURE( 1.000000000000000100E-005 ), #10, 'distance_accuracy_value', 'NONE');
#147 = CLOSED_SHELL ( 'NONE', ( #49, #238, #39, #87, #29, #53, #176, #67 ) ) ;
#148 = AXIS2_PLACEMENT_3D ( 'NONE', #184, #31, #21 ) ;
#149 = ORIENTED_EDGE ( 'NONE', *, *, #30, .T. ) ;
#150 = FACE_OUTER_BOUND ( 'NONE', #212, .T. ) ;
#151 =( NAMED_UNIT ( * ) PLANE_ANGLE_UNIT ( ) SI_UNIT ( $, .RADIAN. ) );
#152 = VERTEX_POINT ( 'NONE', #5 ) ;
#153 = APPROVAL_PERSON_ORGANIZATION ( #35, #95, #164 ) ;
#154 = CALENDAR_DATE ( 2017, 31, 7 ) ;
#155 = FACE_BOUND ( 'NONE', #140, .T. ) ;
#156 = DIRECTION ( 'NONE',  ( -1.000000000000000000, -0.0000000000000000000, -0.0000000000000000000 ) ) ;
#157 = MECHANICAL_CONTEXT ( 'NONE', #177, 'mechanical' ) ;
#158 = CIRCLE ( 'NONE', #137, 0.3937007874015748300 ) ;
#159 = ORIENTED_EDGE ( 'NONE', *, *, #236, .F. ) ;
#160 = CONICAL_SURFACE ( 'NONE', #54, 0.3740157480314961800, 0.3947911196997619400 ) ;
#161 = SECURITY_CLASSIFICATION ( '', '', #3 ) ;
#162 = CARTESIAN_POINT ( 'NONE',  ( 3.425196850393701400, 0.3346456692913386000, -8.196184257866299600E-017 ) ) ;
#163 = CARTESIAN_POINT ( 'NONE',  ( 0.0000000000000000000, 0.0000000000000000000, 0.0000000000000000000 ) ) ;
#164 = APPROVAL_ROLE ( '' ) ;
#165 = ORIENTED_EDGE ( 'NONE', *, *, #30, .F. ) ;
#166 = AXIS2_PLACEMENT_3D ( 'NONE', #104, #213, #19 ) ;
#167 = EDGE_CURVE ( 'NONE', #90, #90, #117, .T. ) ;
#168 =( NAMED_UNIT ( * ) SI_UNIT ( $, .STERADIAN. ) SOLID_ANGLE_UNIT ( ) );
#169 = CALENDAR_DATE ( 2017, 31, 7 ) ;
#170 = PRODUCT ( '581229101', '581229101', '', ( #157 ) ) ;
#171 = APPROVAL ( #83, 'UNSPECIFIED' ) ;
#172 = LOCAL_TIME ( 10, 28, 30.00000000000000000, #246 ) ;
#173 = CALENDAR_DATE ( 2017, 31, 7 ) ;
#174 = CALENDAR_DATE ( 2017, 31, 7 ) ;
#175 = EDGE_CURVE ( 'NONE', #187, #187, #70, .T. ) ;
#176 = ADVANCED_FACE ( 'NONE', ( #247, #150 ), #142, .T. ) ;
#177 = APPLICATION_CONTEXT ( 'configuration controlled 3d designs of mechanical parts and assemblies' ) ;
#178 = CYLINDRICAL_SURFACE ( 'NONE', #14, 0.3937007874015748300 ) ;
#179 = ORIENTED_EDGE ( 'NONE', *, *, #206, .T. ) ;
#180 = PERSON_AND_ORGANIZATION ( #248, #120 ) ;
#181 = EDGE_LOOP ( 'NONE', ( #179 ) ) ;
#182 = DATE_TIME_ROLE ( 'creation_date' ) ;
#183 = DIRECTION ( 'NONE',  ( 0.0000000000000000000, 0.0000000000000000000, -1.000000000000000000 ) ) ;
#184 = CARTESIAN_POINT ( 'NONE',  ( 1.574803149606299300, -5.584573113808703900E-064, -4.024109023099547600E-048 ) ) ;
#185 = EDGE_LOOP ( 'NONE', ( #32 ) ) ;
#186 = FACE_BOUND ( 'NONE', #109, .T. ) ;
#187 = VERTEX_POINT ( 'NONE', #50 ) ;
#188 = AXIS2_PLACEMENT_3D ( 'NONE', #106, #62, #63 ) ;
#189 = EDGE_LOOP ( 'NONE', ( #228 ) ) ;
#190 = AXIS2_PLACEMENT_3D ( 'NONE', #208, #156, #77 ) ;
#191 = CARTESIAN_POINT ( 'NONE',  ( 0.0000000000000000000, 0.4330708661417322900, -1.060682668665051200E-016 ) ) ;
#192 = CALENDAR_DATE ( 2017, 31, 7 ) ;
#193 = EDGE_LOOP ( 'NONE', ( #195 ) ) ;
#194 = FACE_OUTER_BOUND ( 'NONE', #215, .T. ) ;
#195 = ORIENTED_EDGE ( 'NONE', *, *, #59, .F. ) ;
#196 = CARTESIAN_POINT ( 'NONE',  ( 3.425196850393701400, 0.0000000000000000000, -0.2755905511811023700 ) ) ;
#197 = CC_DESIGN_PERSON_AND_ORGANIZATION_ASSIGNMENT ( #6, #144, ( #237 ) ) ;
#198 = DIRECTION ( 'NONE',  ( 1.000000000000000000, 0.0000000000000000000, 0.0000000000000000000 ) ) ;
#199 = DIRECTION ( 'NONE',  ( 0.0000000000000000000, 0.0000000000000000000, -1.000000000000000000 ) ) ;
#200 = APPROVAL_DATE_TIME ( #121, #95 ) ;
#201 = APPROVAL_ROLE ( '' ) ;
#202 = DIRECTION ( 'NONE',  ( 0.0000000000000000000, 0.0000000000000000000, -1.000000000000000000 ) ) ;
#203 = CC_DESIGN_APPROVAL ( #78, ( #161 ) ) ;
#204 = CC_DESIGN_PERSON_AND_ORGANIZATION_ASSIGNMENT ( #132, #119, ( #161 ) ) ;
#205 = AXIS2_PLACEMENT_3D ( 'NONE', #191, #128, #110 ) ;
#206 = EDGE_CURVE ( 'NONE', #37, #37, #20, .T. ) ;
#207 = CIRCLE ( 'NONE', #100, 0.3740157480314960600 ) ;
#208 = CARTESIAN_POINT ( 'NONE',  ( 3.425196850393701400, 0.0000000000000000000, 0.0000000000000000000 ) ) ;
#209 = CARTESIAN_POINT ( 'NONE',  ( 1.811023622047244200, 0.0000000000000000000, 0.0000000000000000000 ) ) ;
#210 = FACE_BOUND ( 'NONE', #23, .T. ) ;
#211 = DIRECTION ( 'NONE',  ( 1.000000000000000000, 0.0000000000000000000, 0.0000000000000000000 ) ) ;
#212 = EDGE_LOOP ( 'NONE', ( #165 ) ) ;
#213 = DIRECTION ( 'NONE',  ( 1.000000000000000000, 0.0000000000000000000, 0.0000000000000000000 ) ) ;
#214 = CYLINDRICAL_SURFACE ( 'NONE', #130, 0.4921259842519685200 ) ;
#215 = EDGE_LOOP ( 'NONE', ( #231 ) ) ;
#216 = PERSON_AND_ORGANIZATION ( #248, #120 ) ;
#217 = EDGE_LOOP ( 'NONE', ( #7 ) ) ;
#218 = CARTESIAN_POINT ( 'NONE',  ( 1.811023622047244200, 0.3937007874015748300, -9.642569715136811900E-017 ) ) ;
#219 = LOCAL_TIME ( 10, 28, 30.00000000000000000, #75 ) ;
#220 = FACE_OUTER_BOUND ( 'NONE', #232, .T. ) ;
#221 = APPROVAL_ROLE ( '' ) ;
#222 = CARTESIAN_POINT ( 'NONE',  ( 2.618110236220472700, 0.0000000000000000000, 0.0000000000000000000 ) ) ;
#223 = APPLICATION_PROTOCOL_DEFINITION ( 'international standard', 'config_control_design', 1994, #105 ) ;
#224 = EDGE_LOOP ( 'NONE', ( #149 ) ) ;
#225 = EDGE_LOOP ( 'NONE', ( #159 ) ) ;
#226 = COORDINATED_UNIVERSAL_TIME_OFFSET ( 5, 0, .BEHIND. ) ;
#227 = ORIENTED_EDGE ( 'NONE', *, *, #236, .T. ) ;
#228 = ORIENTED_EDGE ( 'NONE', *, *, #82, .T. ) ;
#229 = DIMENSIONAL_EXPONENTS ( 1.000000000000000000, 0.0000000000000000000, 0.0000000000000000000, 0.0000000000000000000, 0.0000000000000000000, 0.0000000000000000000, 0.0000000000000000000 ) ;
#230 = ORIENTED_EDGE ( 'NONE', *, *, #59, .T. ) ;
#231 = ORIENTED_EDGE ( 'NONE', *, *, #82, .F. ) ;
#232 = EDGE_LOOP ( 'NONE', ( #230 ) ) ;
#233 = ORIENTED_EDGE ( 'NONE', *, *, #11, .F. ) ;
#234 = DATE_AND_TIME ( #192, #112 ) ;
#235 = FACE_OUTER_BOUND ( 'NONE', #15, .T. ) ;
#236 = EDGE_CURVE ( 'NONE', #111, #111, #158, .T. ) ;
#237 = PRODUCT_DEFINITION_FORMATION_WITH_SPECIFIED_SOURCE ( 'ANY', '', #170, .NOT_KNOWN. ) ;
#238 = ADVANCED_FACE ( 'NONE', ( #40, #155 ), #13, .T. ) ;
#239 = DIRECTION ( 'NONE',  ( 0.0000000000000000000, 0.0000000000000000000, -1.000000000000000000 ) ) ;
#240 = DATE_TIME_ROLE ( 'classification_date' ) ;
#241 = PERSON_AND_ORGANIZATION_ROLE ( 'design_owner' ) ;
#242 = APPROVAL_DATE_TIME ( #42, #171 ) ;
#243 = CARTESIAN_POINT ( 'NONE',  ( 0.0000000000000000000, 0.0000000000000000000, -0.4921259842519685200 ) ) ;
#244 = AXIS2_PLACEMENT_3D ( 'NONE', #101, #118, #183 ) ;
#245 = CARTESIAN_POINT ( 'NONE',  ( 3.425196850393701400, 0.0000000000000000000, 0.0000000000000000000 ) ) ;
#246 = COORDINATED_UNIVERSAL_TIME_OFFSET ( 5, 0, .BEHIND. ) ;
#247 = FACE_BOUND ( 'NONE', #181, .T. ) ;
#248 = PERSON ( 'UNSPECIFIED', 'UNSPECIFIED', 'UNSPECIFIED', ('UNSPECIFIED'), ('UNSPECIFIED'), ('UNSPECIFIED') ) ;
#249 = DIRECTION ( 'NONE',  ( -1.000000000000000000, -0.0000000000000000000, -0.0000000000000000000 ) ) ;
#250 = EDGE_LOOP ( 'NONE', ( #102 ) ) ;
#251 = DIRECTION ( 'NONE',  ( 0.0000000000000000000, 0.0000000000000000000, -1.000000000000000000 ) ) ;
#252 = PRODUCT_DEFINITION ( 'UNKNOWN', '', #237, #28 ) ;
ENDSEC;
END-ISO-10303-21;
