ISO-10303-21;
HEADER;
FILE_DESCRIPTION (( 'STEP AP203' ),
    '1' );
FILE_NAME ('581243120.STEP',
    '2017-07-27T18:41:44',
    ( '' ),
    ( '' ),
    'SwSTEP 2.0',
    'SolidWorks 2017',
    '' );
FILE_SCHEMA (( 'CONFIG_CONTROL_DESIGN' ));
ENDSEC;

DATA;
#1 = DIRECTION ( 'NONE',  ( -0.0000000000000000000, -0.0000000000000000000, 1.000000000000000000 ) ) ;
#2 = CARTESIAN_POINT ( 'NONE',  ( 0.0000000000000000000, 0.0000000000000000000, 0.0000000000000000000 ) ) ;
#3 = VERTEX_POINT ( 'NONE', #75 ) ;
#4 = CC_DESIGN_PERSON_AND_ORGANIZATION_ASSIGNMENT ( #95, #71, ( #145 ) ) ;
#5 = CYLINDRICAL_SURFACE ( 'NONE', #88, 5.074000000000000700 ) ;
#6 = PRODUCT ( '581243120', '581243120', '', ( #19 ) ) ;
#7 = DIRECTION ( 'NONE',  ( 0.0000000000000000000, 0.0000000000000000000, 1.000000000000000000 ) ) ;
#8 = CC_DESIGN_PERSON_AND_ORGANIZATION_ASSIGNMENT ( #170, #180, ( #6 ) ) ;
#9 = APPROVAL_STATUS ( 'not_yet_approved' ) ;
#10 = DIRECTION ( 'NONE',  ( -0.0000000000000000000, 1.000000000000000000, 2.832769448823989800E-016 ) ) ;
#11 = CARTESIAN_POINT ( 'NONE',  ( 5.074000000000000700, 0.0000000000000000000, -6.299999999999999800 ) ) ;
#12 = EDGE_CURVE ( 'NONE', #127, #127, #49, .T. ) ;
#13 = APPLICATION_PROTOCOL_DEFINITION ( 'international standard', 'config_control_design', 1994, #102 ) ;
#14 = DATE_AND_TIME ( #26, #144 ) ;
#15 = CALENDAR_DATE ( 2017, 27, 7 ) ;
#16 = AXIS2_PLACEMENT_3D ( 'NONE', #54, #146, #213 ) ;
#17 = LENGTH_MEASURE_WITH_UNIT ( LENGTH_MEASURE( 0.02539999999999999900 ), #34 );
#18 = DIRECTION ( 'NONE',  ( 1.000000000000000000, 0.0000000000000000000, 0.0000000000000000000 ) ) ;
#19 = MECHANICAL_CONTEXT ( 'NONE', #102, 'mechanical' ) ;
#20 = ADVANCED_BREP_SHAPE_REPRESENTATION ( '581243120', ( #248, #59 ), #149 ) ;
#21 = CARTESIAN_POINT ( 'NONE',  ( 0.0000000000000000000, 0.0000000000000000000, -6.299999999999999800 ) ) ;
#22 = COORDINATED_UNIVERSAL_TIME_OFFSET ( 5, 0, .BEHIND. ) ;
#23 = DIRECTION ( 'NONE',  ( 0.0000000000000000000, 1.000000000000000000, 2.832769448823989800E-016 ) ) ;
#24 = ORIENTED_EDGE ( 'NONE', *, *, #73, .F. ) ;
#25 = CIRCLE ( 'NONE', #175, 6.200000000000000200 ) ;
#26 = CALENDAR_DATE ( 2017, 27, 7 ) ;
#27 = CARTESIAN_POINT ( 'NONE',  ( 0.0000000000000000000, -12.39999999999999500, -18.69999999999999900 ) ) ;
#28 = AXIS2_PLACEMENT_3D ( 'NONE', #100, #168, #41 ) ;
#29 = FACE_OUTER_BOUND ( 'NONE', #124, .T. ) ;
#30 = FACE_OUTER_BOUND ( 'NONE', #91, .T. ) ;
#31 = PRODUCT_DEFINITION_FORMATION_WITH_SPECIFIED_SOURCE ( 'ANY', '', #6, .NOT_KNOWN. ) ;
#32 = SECURITY_CLASSIFICATION_LEVEL ( 'unclassified' ) ;
#33 = DIRECTION ( 'NONE',  ( 1.000000000000000000, 0.0000000000000000000, 0.0000000000000000000 ) ) ;
#34 =( LENGTH_UNIT ( ) NAMED_UNIT ( * ) SI_UNIT ( $, .METRE. ) );
#35 = CIRCLE ( 'NONE', #187, 6.200000000000000200 ) ;
#36 = EDGE_LOOP ( 'NONE', ( #56 ) ) ;
#37 = FACE_BOUND ( 'NONE', #251, .T. ) ;
#38 = FACE_OUTER_BOUND ( 'NONE', #176, .T. ) ;
#39 = CIRCLE ( 'NONE', #28, 5.074000000000000700 ) ;
#40 = PRODUCT_DEFINITION ( 'UNKNOWN', '', #31, #193 ) ;
#41 = DIRECTION ( 'NONE',  ( 1.000000000000000000, 0.0000000000000000000, 0.0000000000000000000 ) ) ;
#42 = ORIENTED_EDGE ( 'NONE', *, *, #139, .F. ) ;
#43 = APPROVAL_PERSON_ORGANIZATION ( #152, #173, #134 ) ;
#44 = EDGE_CURVE ( 'NONE', #141, #141, #183, .T. ) ;
#45 = CC_DESIGN_DATE_AND_TIME_ASSIGNMENT ( #14, #240, ( #145 ) ) ;
#46 = DIRECTION ( 'NONE',  ( 0.0000000000000000000, 0.0000000000000000000, 1.000000000000000000 ) ) ;
#47 = ADVANCED_FACE ( 'NONE', ( #29, #38 ), #5, .F. ) ;
#48 = FACE_OUTER_BOUND ( 'NONE', #57, .T. ) ;
#49 = CIRCLE ( 'NONE', #55, 6.200000000000000200 ) ;
#50 = AXIS2_PLACEMENT_3D ( 'NONE', #171, #1, #244 ) ;
#51 = FACE_OUTER_BOUND ( 'NONE', #74, .T. ) ;
#52 = CYLINDRICAL_SURFACE ( 'NONE', #157, 5.074000000000001600 ) ;
#53 = CC_DESIGN_SECURITY_CLASSIFICATION ( #145, ( #31 ) ) ;
#54 = CARTESIAN_POINT ( 'NONE',  ( 0.0000000000000000000, 0.0000000000000000000, 0.0000000000000000000 ) ) ;
#55 = AXIS2_PLACEMENT_3D ( 'NONE', #118, #117, #18 ) ;
#56 = ORIENTED_EDGE ( 'NONE', *, *, #103, .T. ) ;
#57 = EDGE_LOOP ( 'NONE', ( #205 ) ) ;
#58 = CARTESIAN_POINT ( 'NONE',  ( 0.0000000000000000000, -18.69999999999999600, -18.69999999999999900 ) ) ;
#59 = AXIS2_PLACEMENT_3D ( 'NONE', #2, #7, #136 ) ;
#60 = EDGE_LOOP ( 'NONE', ( #42 ) ) ;
#61 = PERSON_AND_ORGANIZATION_ROLE ( 'creator' ) ;
#62 = EDGE_CURVE ( 'NONE', #84, #84, #35, .T. ) ;
#63 = FACE_OUTER_BOUND ( 'NONE', #121, .T. ) ;
#64 = CARTESIAN_POINT ( 'NONE',  ( 0.0000000000000000000, -12.39999999999999700, -18.69999999999999900 ) ) ;
#65 = FACE_OUTER_BOUND ( 'NONE', #154, .T. ) ;
#66 = VERTEX_POINT ( 'NONE', #228 ) ;
#67 = APPROVAL_ROLE ( '' ) ;
#68 = ORIENTED_EDGE ( 'NONE', *, *, #44, .T. ) ;
#69 = CARTESIAN_POINT ( 'NONE',  ( 0.0000000000000000000, -18.69999999999999600, -18.69999999999999900 ) ) ;
#70 = ADVANCED_FACE ( 'NONE', ( #224, #207 ), #189, .T. ) ;
#71 = PERSON_AND_ORGANIZATION_ROLE ( 'classification_officer' ) ;
#72 = EDGE_LOOP ( 'NONE', ( #191 ) ) ;
#73 = EDGE_CURVE ( 'NONE', #182, #182, #25, .T. ) ;
#74 = EDGE_LOOP ( 'NONE', ( #85 ) ) ;
#75 = CARTESIAN_POINT ( 'NONE',  ( 0.0000000000000000000, -12.39999999999999700, -13.62599999999999900 ) ) ;
#76 = APPLICATION_CONTEXT ( 'configuration controlled 3d designs of mechanical parts and assemblies' ) ;
#77 = CYLINDRICAL_SURFACE ( 'NONE', #50, 6.200000000000000200 ) ;
#78 = ORIENTED_EDGE ( 'NONE', *, *, #12, .F. ) ;
#79 = APPROVAL_PERSON_ORGANIZATION ( #113, #119, #67 ) ;
#80 = CARTESIAN_POINT ( 'NONE',  ( 0.0000000000000000000, 0.0000000000000000000, 0.0000000000000000000 ) ) ;
#81 =( CONVERSION_BASED_UNIT ( 'INCH', #17 ) LENGTH_UNIT ( ) NAMED_UNIT ( #243 ) );
#82 = PERSON_AND_ORGANIZATION ( #247, #122 ) ;
#83 = DIRECTION ( 'NONE',  ( 1.000000000000000000, 0.0000000000000000000, 0.0000000000000000000 ) ) ;
#84 = VERTEX_POINT ( 'NONE', #216 ) ;
#85 = ORIENTED_EDGE ( 'NONE', *, *, #139, .T. ) ;
#86 = ADVANCED_FACE ( 'NONE', ( #215, #137 ), #131, .F. ) ;
#87 = CARTESIAN_POINT ( 'NONE',  ( 0.0000000000000000000, -12.40000000000000000, -6.299999999999999800 ) ) ;
#88 = AXIS2_PLACEMENT_3D ( 'NONE', #21, #212, #83 ) ;
#89 = DIRECTION ( 'NONE',  ( 0.0000000000000000000, 1.000000000000000000, 5.665538897647979600E-016 ) ) ;
#90 = DATE_AND_TIME ( #203, #181 ) ;
#91 = EDGE_LOOP ( 'NONE', ( #160 ) ) ;
#92 = ORIENTED_EDGE ( 'NONE', *, *, #204, .T. ) ;
#93 = LOCAL_TIME ( 14, 41, 44.00000000000000000, #242 ) ;
#94 = AXIS2_PLACEMENT_3D ( 'NONE', #87, #153, #177 ) ;
#95 = PERSON_AND_ORGANIZATION ( #247, #122 ) ;
#96 = APPROVAL_STATUS ( 'not_yet_approved' ) ;
#97 = FACE_OUTER_BOUND ( 'NONE', #222, .T. ) ;
#98 = CYLINDRICAL_SURFACE ( 'NONE', #133, 6.200000000000000200 ) ;
#99 = PERSON_AND_ORGANIZATION ( #247, #122 ) ;
#100 = CARTESIAN_POINT ( 'NONE',  ( 0.0000000000000000000, 0.0000000000000000000, -6.299999999999999800 ) ) ;
#101 = AXIS2_PLACEMENT_3D ( 'NONE', #58, #10, #209 ) ;
#102 = APPLICATION_CONTEXT ( 'configuration controlled 3d designs of mechanical parts and assemblies' ) ;
#103 = EDGE_CURVE ( 'NONE', #66, #66, #206, .T. ) ;
#104 = SHAPE_DEFINITION_REPRESENTATION ( #217, #20 ) ;
#105 = DIRECTION ( 'NONE',  ( 0.0000000000000000000, -4.307210080668919600E-016, 1.000000000000000000 ) ) ;
#106 = CC_DESIGN_APPROVAL ( #123, ( #145 ) ) ;
#107 = EDGE_LOOP ( 'NONE', ( #220 ) ) ;
#108 = ADVANCED_FACE ( 'NONE', ( #162, #97 ), #77, .T. ) ;
#109 = COORDINATED_UNIVERSAL_TIME_OFFSET ( 5, 0, .BEHIND. ) ;
#110 = ORIENTED_EDGE ( 'NONE', *, *, #44, .F. ) ;
#111 = CC_DESIGN_DATE_AND_TIME_ASSIGNMENT ( #128, #246, ( #40 ) ) ;
#112 = PERSON_AND_ORGANIZATION_ROLE ( 'creator' ) ;
#113 = PERSON_AND_ORGANIZATION ( #247, #122 ) ;
#114 = DIRECTION ( 'NONE',  ( 0.0000000000000000000, 1.000000000000000000, 2.832769448823989800E-016 ) ) ;
#115 = EDGE_LOOP ( 'NONE', ( #92 ) ) ;
#116 = CARTESIAN_POINT ( 'NONE',  ( 0.0000000000000000000, 0.0000000000000000000, 0.0000000000000000000 ) ) ;
#117 = DIRECTION ( 'NONE',  ( 0.0000000000000000000, 0.0000000000000000000, 1.000000000000000000 ) ) ;
#118 = CARTESIAN_POINT ( 'NONE',  ( 0.0000000000000000000, 0.0000000000000000000, -6.299999999999999800 ) ) ;
#119 = APPROVAL ( #96, 'UNSPECIFIED' ) ;
#120 = PLANE ( 'NONE',  #16 ) ;
#121 = EDGE_LOOP ( 'NONE', ( #199 ) ) ;
#122 = ORGANIZATION ( 'UNSPECIFIED', 'UNSPECIFIED', '' ) ;
#123 = APPROVAL ( #9, 'UNSPECIFIED' ) ;
#124 = EDGE_LOOP ( 'NONE', ( #200 ) ) ;
#125 = CARTESIAN_POINT ( 'NONE',  ( 0.0000000000000000000, -12.39999999999999700, -18.69999999999999900 ) ) ;
#126 = DIRECTION ( 'NONE',  ( 0.0000000000000000000, -1.000000000000000000, 3.469013325287953300E-016 ) ) ;
#127 = VERTEX_POINT ( 'NONE', #208 ) ;
#128 = DATE_AND_TIME ( #159, #93 ) ;
#129 = CC_DESIGN_PERSON_AND_ORGANIZATION_ASSIGNMENT ( #82, #112, ( #40 ) ) ;
#130 = DIRECTION ( 'NONE',  ( 0.0000000000000000000, -1.000000000000000000, 3.469013325287953300E-016 ) ) ;
#131 = TOROIDAL_SURFACE ( 'NONE', #223, 12.40000000000000000, 5.074000000000000700 ) ;
#132 = COORDINATED_UNIVERSAL_TIME_OFFSET ( 5, 0, .BEHIND. ) ;
#133 = AXIS2_PLACEMENT_3D ( 'NONE', #125, #126, #225 ) ;
#134 = APPROVAL_ROLE ( '' ) ;
#135 = FACE_BOUND ( 'NONE', #115, .T. ) ;
#136 = DIRECTION ( 'NONE',  ( 1.000000000000000000, 0.0000000000000000000, 0.0000000000000000000 ) ) ;
#137 = FACE_OUTER_BOUND ( 'NONE', #60, .T. ) ;
#138 = LOCAL_TIME ( 14, 41, 44.00000000000000000, #109 ) ;
#139 = EDGE_CURVE ( 'NONE', #3, #3, #233, .T. ) ;
#140 = EDGE_CURVE ( 'NONE', #211, #211, #39, .T. ) ;
#141 = VERTEX_POINT ( 'NONE', #238 ) ;
#142 = ADVANCED_FACE ( 'NONE', ( #135, #237 ), #178, .F. ) ;
#143 = APPLICATION_PROTOCOL_DEFINITION ( 'international standard', 'config_control_design', 1994, #76 ) ;
#144 = LOCAL_TIME ( 14, 41, 44.00000000000000000, #132 ) ;
#145 = SECURITY_CLASSIFICATION ( '', '', #32 ) ;
#146 = DIRECTION ( 'NONE',  ( 0.0000000000000000000, 0.0000000000000000000, 1.000000000000000000 ) ) ;
#147 = APPROVAL_DATE_TIME ( #201, #123 ) ;
#148 = APPROVAL_DATE_TIME ( #90, #119 ) ;
#149 =( GEOMETRIC_REPRESENTATION_CONTEXT ( 3 ) GLOBAL_UNCERTAINTY_ASSIGNED_CONTEXT ( ( #167 ) ) GLOBAL_UNIT_ASSIGNED_CONTEXT ( ( #81, #202, #218 ) ) REPRESENTATION_CONTEXT ( 'NONE', 'WORKASPACE' ) );
#150 = EDGE_LOOP ( 'NONE', ( #78 ) ) ;
#151 = AXIS2_PLACEMENT_3D ( 'NONE', #184, #114, #234 ) ;
#152 = PERSON_AND_ORGANIZATION ( #247, #122 ) ;
#153 = DIRECTION ( 'NONE',  ( -1.000000000000000000, -0.0000000000000000000, 0.0000000000000000000 ) ) ;
#154 = EDGE_LOOP ( 'NONE', ( #232 ) ) ;
#155 = AXIS2_PLACEMENT_3D ( 'NONE', #116, #46, #241 ) ;
#156 = APPROVAL_STATUS ( 'not_yet_approved' ) ;
#157 = AXIS2_PLACEMENT_3D ( 'NONE', #64, #130, #172 ) ;
#158 = DIRECTION ( 'NONE',  ( 1.000000000000000000, 0.0000000000000000000, 0.0000000000000000000 ) ) ;
#159 = CALENDAR_DATE ( 2017, 27, 7 ) ;
#160 = ORIENTED_EDGE ( 'NONE', *, *, #103, .F. ) ;
#161 = PRODUCT_RELATED_PRODUCT_CATEGORY ( 'detail', '', ( #6 ) ) ;
#162 = FACE_OUTER_BOUND ( 'NONE', #107, .T. ) ;
#163 = ADVANCED_FACE ( 'NONE', ( #37, #48 ), #120, .T. ) ;
#164 = APPROVAL_ROLE ( '' ) ;
#165 = CC_DESIGN_APPROVAL ( #119, ( #31 ) ) ;
#166 = PERSON_AND_ORGANIZATION_ROLE ( 'design_supplier' ) ;
#167 = UNCERTAINTY_MEASURE_WITH_UNIT (LENGTH_MEASURE( 1.000000000000000100E-005 ), #81, 'distance_accuracy_value', 'NONE');
#168 = DIRECTION ( 'NONE',  ( -0.0000000000000000000, -0.0000000000000000000, 1.000000000000000000 ) ) ;
#169 = COORDINATED_UNIVERSAL_TIME_OFFSET ( 5, 0, .BEHIND. ) ;
#170 = PERSON_AND_ORGANIZATION ( #247, #122 ) ;
#171 = CARTESIAN_POINT ( 'NONE',  ( 0.0000000000000000000, 0.0000000000000000000, -6.299999999999999800 ) ) ;
#172 = DIRECTION ( 'NONE',  ( 0.0000000000000000000, -4.307210080668919600E-016, -1.000000000000000000 ) ) ;
#173 = APPROVAL ( #156, 'UNSPECIFIED' ) ;
#174 = ORIENTED_EDGE ( 'NONE', *, *, #140, .T. ) ;
#175 = AXIS2_PLACEMENT_3D ( 'NONE', #80, #194, #158 ) ;
#176 = EDGE_LOOP ( 'NONE', ( #68 ) ) ;
#177 = DIRECTION ( 'NONE',  ( 0.0000000000000000000, 0.0000000000000000000, 1.000000000000000000 ) ) ;
#178 = PLANE ( 'NONE',  #101 ) ;
#179 = PERSON_AND_ORGANIZATION ( #247, #122 ) ;
#180 = PERSON_AND_ORGANIZATION_ROLE ( 'design_owner' ) ;
#181 = LOCAL_TIME ( 14, 41, 44.00000000000000000, #169 ) ;
#182 = VERTEX_POINT ( 'NONE', #235 ) ;
#183 = CIRCLE ( 'NONE', #155, 5.074000000000000700 ) ;
#184 = CARTESIAN_POINT ( 'NONE',  ( 0.0000000000000000000, -18.69999999999999600, -18.69999999999999900 ) ) ;
#185 = PERSON_AND_ORGANIZATION ( #247, #122 ) ;
#186 = DIRECTION ( 'NONE',  ( 0.0000000000000000000, 0.0000000000000000000, 1.000000000000000000 ) ) ;
#187 = AXIS2_PLACEMENT_3D ( 'NONE', #69, #219, #226 ) ;
#188 = CLOSED_SHELL ( 'NONE', ( #210, #70, #108, #142, #163, #227, #86, #47 ) ) ;
#189 = TOROIDAL_SURFACE ( 'NONE', #94, 12.40000000000000000, 6.200000000000000200 ) ;
#190 = CC_DESIGN_PERSON_AND_ORGANIZATION_ASSIGNMENT ( #179, #61, ( #31 ) ) ;
#191 = ORIENTED_EDGE ( 'NONE', *, *, #62, .F. ) ;
#192 = VERTEX_POINT ( 'NONE', #214 ) ;
#193 = DESIGN_CONTEXT ( 'detailed design', #76, 'design' ) ;
#194 = DIRECTION ( 'NONE',  ( 0.0000000000000000000, 0.0000000000000000000, 1.000000000000000000 ) ) ;
#195 = EDGE_LOOP ( 'NONE', ( #174 ) ) ;
#196 = LOCAL_TIME ( 14, 41, 44.00000000000000000, #22 ) ;
#197 = CC_DESIGN_APPROVAL ( #173, ( #40 ) ) ;
#198 = CARTESIAN_POINT ( 'NONE',  ( 0.0000000000000000000, -12.40000000000000000, -6.299999999999999800 ) ) ;
#199 = ORIENTED_EDGE ( 'NONE', *, *, #62, .T. ) ;
#200 = ORIENTED_EDGE ( 'NONE', *, *, #140, .F. ) ;
#201 = DATE_AND_TIME ( #230, #196 ) ;
#202 =( NAMED_UNIT ( * ) PLANE_ANGLE_UNIT ( ) SI_UNIT ( $, .RADIAN. ) );
#203 = CALENDAR_DATE ( 2017, 27, 7 ) ;
#204 = EDGE_CURVE ( 'NONE', #192, #192, #250, .T. ) ;
#205 = ORIENTED_EDGE ( 'NONE', *, *, #73, .T. ) ;
#206 = CIRCLE ( 'NONE', #221, 6.200000000000000200 ) ;
#207 = FACE_OUTER_BOUND ( 'NONE', #36, .T. ) ;
#208 = CARTESIAN_POINT ( 'NONE',  ( 6.200000000000000200, 0.0000000000000000000, -6.299999999999999800 ) ) ;
#209 = DIRECTION ( 'NONE',  ( 1.000000000000000000, 0.0000000000000000000, 0.0000000000000000000 ) ) ;
#210 = ADVANCED_FACE ( 'NONE', ( #30, #63 ), #98, .T. ) ;
#211 = VERTEX_POINT ( 'NONE', #11 ) ;
#212 = DIRECTION ( 'NONE',  ( -0.0000000000000000000, -0.0000000000000000000, 1.000000000000000000 ) ) ;
#213 = DIRECTION ( 'NONE',  ( 1.000000000000000000, 0.0000000000000000000, -0.0000000000000000000 ) ) ;
#214 = CARTESIAN_POINT ( 'NONE',  ( 0.0000000000000000000, -18.69999999999999900, -13.62599999999999900 ) ) ;
#215 = FACE_OUTER_BOUND ( 'NONE', #195, .T. ) ;
#216 = CARTESIAN_POINT ( 'NONE',  ( 6.200000000000000200, -18.69999999999999600, -18.69999999999999900 ) ) ;
#217 = PRODUCT_DEFINITION_SHAPE ( 'NONE', 'NONE',  #40 ) ;
#218 =( NAMED_UNIT ( * ) SI_UNIT ( $, .STERADIAN. ) SOLID_ANGLE_UNIT ( ) );
#219 = DIRECTION ( 'NONE',  ( 0.0000000000000000000, 1.000000000000000000, 2.832769448823989800E-016 ) ) ;
#220 = ORIENTED_EDGE ( 'NONE', *, *, #12, .T. ) ;
#221 = AXIS2_PLACEMENT_3D ( 'NONE', #249, #23, #33 ) ;
#222 = EDGE_LOOP ( 'NONE', ( #24 ) ) ;
#223 = AXIS2_PLACEMENT_3D ( 'NONE', #198, #252, #186 ) ;
#224 = FACE_OUTER_BOUND ( 'NONE', #150, .T. ) ;
#225 = DIRECTION ( 'NONE',  ( 0.0000000000000000000, -3.524965153115178100E-016, -1.000000000000000000 ) ) ;
#226 = DIRECTION ( 'NONE',  ( 1.000000000000000000, 0.0000000000000000000, 0.0000000000000000000 ) ) ;
#227 = ADVANCED_FACE ( 'NONE', ( #51, #65 ), #52, .F. ) ;
#228 = CARTESIAN_POINT ( 'NONE',  ( 6.200000000000000200, -12.39999999999999700, -18.69999999999999900 ) ) ;
#229 = APPROVAL_PERSON_ORGANIZATION ( #185, #123, #164 ) ;
#230 = CALENDAR_DATE ( 2017, 27, 7 ) ;
#231 = AXIS2_PLACEMENT_3D ( 'NONE', #27, #89, #105 ) ;
#232 = ORIENTED_EDGE ( 'NONE', *, *, #204, .F. ) ;
#233 = CIRCLE ( 'NONE', #231, 5.074000000000001600 ) ;
#234 = DIRECTION ( 'NONE',  ( 0.0000000000000000000, -4.307210080668921000E-016, 1.000000000000000000 ) ) ;
#235 = CARTESIAN_POINT ( 'NONE',  ( 6.200000000000000200, 0.0000000000000000000, 0.0000000000000000000 ) ) ;
#236 = APPROVAL_DATE_TIME ( #239, #173 ) ;
#237 = FACE_OUTER_BOUND ( 'NONE', #72, .T. ) ;
#238 = CARTESIAN_POINT ( 'NONE',  ( 5.074000000000000700, 0.0000000000000000000, 0.0000000000000000000 ) ) ;
#239 = DATE_AND_TIME ( #15, #138 ) ;
#240 = DATE_TIME_ROLE ( 'classification_date' ) ;
#241 = DIRECTION ( 'NONE',  ( 1.000000000000000000, 0.0000000000000000000, 0.0000000000000000000 ) ) ;
#242 = COORDINATED_UNIVERSAL_TIME_OFFSET ( 5, 0, .BEHIND. ) ;
#243 = DIMENSIONAL_EXPONENTS ( 1.000000000000000000, 0.0000000000000000000, 0.0000000000000000000, 0.0000000000000000000, 0.0000000000000000000, 0.0000000000000000000, 0.0000000000000000000 ) ;
#244 = DIRECTION ( 'NONE',  ( 1.000000000000000000, 0.0000000000000000000, 0.0000000000000000000 ) ) ;
#245 = CC_DESIGN_PERSON_AND_ORGANIZATION_ASSIGNMENT ( #99, #166, ( #31 ) ) ;
#246 = DATE_TIME_ROLE ( 'creation_date' ) ;
#247 = PERSON ( 'UNSPECIFIED', 'UNSPECIFIED', 'UNSPECIFIED', ('UNSPECIFIED'), ('UNSPECIFIED'), ('UNSPECIFIED') ) ;
#248 = MANIFOLD_SOLID_BREP ( 'Sweep-Thin1', #188 ) ;
#249 = CARTESIAN_POINT ( 'NONE',  ( 0.0000000000000000000, -12.39999999999999700, -18.69999999999999900 ) ) ;
#250 = CIRCLE ( 'NONE', #151, 5.073999999999999800 ) ;
#251 = EDGE_LOOP ( 'NONE', ( #110 ) ) ;
#252 = DIRECTION ( 'NONE',  ( -1.000000000000000000, -0.0000000000000000000, 0.0000000000000000000 ) ) ;
ENDSEC;
END-ISO-10303-21;
