ISO-10303-21;
HEADER;
FILE_DESCRIPTION (( 'STEP AP203' ),
    '1' );
FILE_NAME ('581243100.STEP',
    '2017-07-27T18:36:49',
    ( '' ),
    ( '' ),
    'SwSTEP 2.0',
    'SolidWorks 2017',
    '' );
FILE_SCHEMA (( 'CONFIG_CONTROL_DESIGN' ));
ENDSEC;

DATA;
#1 = ORIENTED_EDGE ( 'NONE', *, *, #184, .F. ) ;
#2 = EDGE_LOOP ( 'NONE', ( #161 ) ) ;
#3 = CC_DESIGN_APPROVAL ( #145, ( #164 ) ) ;
#4 = PERSON_AND_ORGANIZATION_ROLE ( 'design_supplier' ) ;
#5 = CIRCLE ( 'NONE', #73, 4.934999999999999600 ) ;
#6 = APPROVAL_PERSON_ORGANIZATION ( #167, #98, #113 ) ;
#7 = APPROVAL_STATUS ( 'not_yet_approved' ) ;
#8 = CARTESIAN_POINT ( 'NONE',  ( 0.0000000000000000000, -17.32000000000000000, -13.27900000000000000 ) ) ;
#9 = EDGE_LOOP ( 'NONE', ( #27 ) ) ;
#10 = DIRECTION ( 'NONE',  ( 1.000000000000000000, 0.0000000000000000000, 0.0000000000000000000 ) ) ;
#11 = DIRECTION ( 'NONE',  ( 1.000000000000000000, 0.0000000000000000000, 0.0000000000000000000 ) ) ;
#12 = MECHANICAL_CONTEXT ( 'NONE', #220, 'mechanical' ) ;
#13 = CC_DESIGN_PERSON_AND_ORGANIZATION_ASSIGNMENT ( #185, #18, ( #206 ) ) ;
#14 = CARTESIAN_POINT ( 'NONE',  ( 4.934999999999999600, 0.0000000000000000000, -7.280000000000001100 ) ) ;
#15 = VERTEX_POINT ( 'NONE', #14 ) ;
#16 = CARTESIAN_POINT ( 'NONE',  ( 4.934999999999999600, 0.0000000000000000000, 0.0000000000000000000 ) ) ;
#17 = DIRECTION ( 'NONE',  ( 1.000000000000000000, 0.0000000000000000000, 0.0000000000000000000 ) ) ;
#18 = PERSON_AND_ORGANIZATION_ROLE ( 'creator' ) ;
#19 = APPROVAL_STATUS ( 'not_yet_approved' ) ;
#20 = DIRECTION ( 'NONE',  ( 0.0000000000000000000, -5.408261308912177400E-016, 1.000000000000000000 ) ) ;
#21 = MANIFOLD_SOLID_BREP ( 'Sweep-Thin1', #45 ) ;
#22 = CARTESIAN_POINT ( 'NONE',  ( 0.0000000000000000000, 0.0000000000000000000, 0.0000000000000000000 ) ) ;
#23 = LOCAL_TIME ( 14, 36, 49.00000000000000000, #59 ) ;
#24 = AXIS2_PLACEMENT_3D ( 'NONE', #67, #116, #231 ) ;
#25 = CYLINDRICAL_SURFACE ( 'NONE', #61, 4.040999999999999500 ) ;
#26 = DIRECTION ( 'NONE',  ( 1.000000000000000000, 0.0000000000000000000, -0.0000000000000000000 ) ) ;
#27 = ORIENTED_EDGE ( 'NONE', *, *, #184, .T. ) ;
#28 = PERSON_AND_ORGANIZATION ( #177, #217 ) ;
#29 = AXIS2_PLACEMENT_3D ( 'NONE', #158, #50, #133 ) ;
#30 = PERSON_AND_ORGANIZATION ( #177, #217 ) ;
#31 = CIRCLE ( 'NONE', #215, 4.934999999999999600 ) ;
#32 = ORIENTED_EDGE ( 'NONE', *, *, #204, .F. ) ;
#33 = CARTESIAN_POINT ( 'NONE',  ( 0.0000000000000000000, 0.0000000000000000000, 0.0000000000000000000 ) ) ;
#34 = EDGE_LOOP ( 'NONE', ( #214 ) ) ;
#35 = DIRECTION ( 'NONE',  ( 1.000000000000000000, 0.0000000000000000000, 0.0000000000000000000 ) ) ;
#36 = APPROVAL_DATE_TIME ( #159, #66 ) ;
#37 = COORDINATED_UNIVERSAL_TIME_OFFSET ( 5, 0, .BEHIND. ) ;
#38 = AXIS2_PLACEMENT_3D ( 'NONE', #166, #94, #20 ) ;
#39 = PRODUCT ( '581243100', '581243100', '', ( #12 ) ) ;
#40 = LOCAL_TIME ( 14, 36, 49.00000000000000000, #75 ) ;
#41 = CARTESIAN_POINT ( 'NONE',  ( 0.0000000000000000000, 0.0000000000000000000, -7.280000000000001100 ) ) ;
#42 = CARTESIAN_POINT ( 'NONE',  ( 0.0000000000000000000, -10.03999999999999900, -7.280000000000001100 ) ) ;
#43 = PRODUCT_DEFINITION_SHAPE ( 'NONE', 'NONE',  #164 ) ;
#44 = EDGE_CURVE ( 'NONE', #15, #15, #156, .T. ) ;
#45 = CLOSED_SHELL ( 'NONE', ( #181, #127, #154, #238, #88, #112, #52, #224 ) ) ;
#46 = CALENDAR_DATE ( 2017, 27, 7 ) ;
#47 =( GEOMETRIC_REPRESENTATION_CONTEXT ( 3 ) GLOBAL_UNCERTAINTY_ASSIGNED_CONTEXT ( ( #239 ) ) GLOBAL_UNIT_ASSIGNED_CONTEXT ( ( #78, #101, #72 ) ) REPRESENTATION_CONTEXT ( 'NONE', 'WORKASPACE' ) );
#48 = FACE_OUTER_BOUND ( 'NONE', #89, .T. ) ;
#49 = DIRECTION ( 'NONE',  ( -0.0000000000000000000, -0.0000000000000000000, 1.000000000000000000 ) ) ;
#50 = DIRECTION ( 'NONE',  ( 0.0000000000000000000, -1.000000000000000000, 0.0000000000000000000 ) ) ;
#51 = CC_DESIGN_SECURITY_CLASSIFICATION ( #175, ( #206 ) ) ;
#52 = ADVANCED_FACE ( 'NONE', ( #174, #186 ), #108, .F. ) ;
#53 = FACE_OUTER_BOUND ( 'NONE', #2, .T. ) ;
#54 = CARTESIAN_POINT ( 'NONE',  ( 0.0000000000000000000, -10.03999999999999400, -17.32000000000000000 ) ) ;
#55 = CARTESIAN_POINT ( 'NONE',  ( 0.0000000000000000000, -10.03999999999999400, -13.27900000000000000 ) ) ;
#56 = DIRECTION ( 'NONE',  ( 0.0000000000000000000, 1.000000000000000000, 2.832769448823989800E-016 ) ) ;
#57 = FACE_OUTER_BOUND ( 'NONE', #126, .T. ) ;
#58 = DATE_AND_TIME ( #183, #40 ) ;
#59 = COORDINATED_UNIVERSAL_TIME_OFFSET ( 5, 0, .BEHIND. ) ;
#60 = LENGTH_MEASURE_WITH_UNIT ( LENGTH_MEASURE( 0.02539999999999999900 ), #188 );
#61 = AXIS2_PLACEMENT_3D ( 'NONE', #85, #192, #79 ) ;
#62 = VERTEX_POINT ( 'NONE', #236 ) ;
#63 = EDGE_LOOP ( 'NONE', ( #128 ) ) ;
#64 = DIMENSIONAL_EXPONENTS ( 1.000000000000000000, 0.0000000000000000000, 0.0000000000000000000, 0.0000000000000000000, 0.0000000000000000000, 0.0000000000000000000, 0.0000000000000000000 ) ;
#65 = LOCAL_TIME ( 14, 36, 49.00000000000000000, #110 ) ;
#66 = APPROVAL ( #125, 'UNSPECIFIED' ) ;
#67 = CARTESIAN_POINT ( 'NONE',  ( 0.0000000000000000000, 0.0000000000000000000, 0.0000000000000000000 ) ) ;
#68 = CIRCLE ( 'NONE', #24, 4.040999999999999500 ) ;
#69 = DIRECTION ( 'NONE',  ( -0.0000000000000000000, -0.0000000000000000000, 1.000000000000000000 ) ) ;
#70 = AXIS2_PLACEMENT_3D ( 'NONE', #146, #222, #252 ) ;
#71 = DATE_AND_TIME ( #105, #219 ) ;
#72 =( NAMED_UNIT ( * ) SI_UNIT ( $, .STERADIAN. ) SOLID_ANGLE_UNIT ( ) );
#73 = AXIS2_PLACEMENT_3D ( 'NONE', #33, #163, #17 ) ;
#74 = DIRECTION ( 'NONE',  ( 0.0000000000000000000, -5.408261308912177400E-016, 1.000000000000000000 ) ) ;
#75 = COORDINATED_UNIVERSAL_TIME_OFFSET ( 5, 0, .BEHIND. ) ;
#76 = VERTEX_POINT ( 'NONE', #8 ) ;
#77 = APPROVAL_PERSON_ORGANIZATION ( #141, #66, #144 ) ;
#78 =( CONVERSION_BASED_UNIT ( 'INCH', #60 ) LENGTH_UNIT ( ) NAMED_UNIT ( #64 ) );
#79 = DIRECTION ( 'NONE',  ( 0.0000000000000000000, 0.0000000000000000000, -1.000000000000000000 ) ) ;
#80 = CC_DESIGN_DATE_AND_TIME_ASSIGNMENT ( #71, #134, ( #175 ) ) ;
#81 = EDGE_CURVE ( 'NONE', #208, #208, #91, .T. ) ;
#82 = EDGE_CURVE ( 'NONE', #84, #84, #68, .T. ) ;
#83 = CALENDAR_DATE ( 2017, 27, 7 ) ;
#84 = VERTEX_POINT ( 'NONE', #243 ) ;
#85 = CARTESIAN_POINT ( 'NONE',  ( 0.0000000000000000000, -10.03999999999999400, -17.32000000000000000 ) ) ;
#86 = AXIS2_PLACEMENT_3D ( 'NONE', #168, #210, #26 ) ;
#87 = FACE_OUTER_BOUND ( 'NONE', #115, .T. ) ;
#88 = ADVANCED_FACE ( 'NONE', ( #172, #87 ), #92, .T. ) ;
#89 = EDGE_LOOP ( 'NONE', ( #203 ) ) ;
#90 = APPLICATION_PROTOCOL_DEFINITION ( 'international standard', 'config_control_design', 1994, #220 ) ;
#91 = CIRCLE ( 'NONE', #38, 4.040999999999999500 ) ;
#92 = PLANE ( 'NONE',  #86 ) ;
#93 = CARTESIAN_POINT ( 'NONE',  ( 0.0000000000000000000, 0.0000000000000000000, -7.280000000000001100 ) ) ;
#94 = DIRECTION ( 'NONE',  ( 0.0000000000000000000, 1.000000000000000000, 5.665538897647979600E-016 ) ) ;
#95 = EDGE_LOOP ( 'NONE', ( #218 ) ) ;
#96 = EDGE_LOOP ( 'NONE', ( #151 ) ) ;
#97 = CALENDAR_DATE ( 2017, 27, 7 ) ;
#98 = APPROVAL ( #7, 'UNSPECIFIED' ) ;
#99 = CARTESIAN_POINT ( 'NONE',  ( 0.0000000000000000000, 0.0000000000000000000, -7.280000000000001100 ) ) ;
#100 = PLANE ( 'NONE',  #70 ) ;
#101 =( NAMED_UNIT ( * ) PLANE_ANGLE_UNIT ( ) SI_UNIT ( $, .RADIAN. ) );
#102 = PRODUCT_RELATED_PRODUCT_CATEGORY ( 'detail', '', ( #39 ) ) ;
#103 = DIRECTION ( 'NONE',  ( 0.0000000000000000000, 0.0000000000000000000, 1.000000000000000000 ) ) ;
#104 = DIRECTION ( 'NONE',  ( 1.000000000000000000, 0.0000000000000000000, 0.0000000000000000000 ) ) ;
#105 = CALENDAR_DATE ( 2017, 27, 7 ) ;
#106 = CYLINDRICAL_SURFACE ( 'NONE', #29, 4.935000000000002300 ) ;
#107 = APPLICATION_PROTOCOL_DEFINITION ( 'international standard', 'config_control_design', 1994, #195 ) ;
#108 = TOROIDAL_SURFACE ( 'NONE', #117, 10.03999999999999900, 4.040999999999999500 ) ;
#109 = DIRECTION ( 'NONE',  ( -1.000000000000000000, -0.0000000000000000000, 0.0000000000000000000 ) ) ;
#110 = COORDINATED_UNIVERSAL_TIME_OFFSET ( 5, 0, .BEHIND. ) ;
#111 = DATE_TIME_ROLE ( 'creation_date' ) ;
#112 = ADVANCED_FACE ( 'NONE', ( #230, #148 ), #25, .F. ) ;
#113 = APPROVAL_ROLE ( '' ) ;
#114 = EDGE_LOOP ( 'NONE', ( #171 ) ) ;
#115 = EDGE_LOOP ( 'NONE', ( #173 ) ) ;
#116 = DIRECTION ( 'NONE',  ( 0.0000000000000000000, 0.0000000000000000000, 1.000000000000000000 ) ) ;
#117 = AXIS2_PLACEMENT_3D ( 'NONE', #42, #193, #227 ) ;
#118 = CC_DESIGN_DATE_AND_TIME_ASSIGNMENT ( #58, #111, ( #164 ) ) ;
#119 = ORIENTED_EDGE ( 'NONE', *, *, #81, .F. ) ;
#120 = EDGE_LOOP ( 'NONE', ( #251 ) ) ;
#121 = DIRECTION ( 'NONE',  ( 1.000000000000000000, 0.0000000000000000000, 0.0000000000000000000 ) ) ;
#122 = PERSON_AND_ORGANIZATION_ROLE ( 'design_owner' ) ;
#123 = APPROVAL_ROLE ( '' ) ;
#124 = DATE_AND_TIME ( #97, #229 ) ;
#125 = APPROVAL_STATUS ( 'not_yet_approved' ) ;
#126 = EDGE_LOOP ( 'NONE', ( #197 ) ) ;
#127 = ADVANCED_FACE ( 'NONE', ( #48, #143 ), #138, .T. ) ;
#128 = ORIENTED_EDGE ( 'NONE', *, *, #189, .F. ) ;
#129 = CC_DESIGN_PERSON_AND_ORGANIZATION_ASSIGNMENT ( #209, #245, ( #164 ) ) ;
#130 = EDGE_LOOP ( 'NONE', ( #32 ) ) ;
#131 = DIRECTION ( 'NONE',  ( 0.0000000000000000000, 1.000000000000000000, 2.832769448823989800E-016 ) ) ;
#132 = AXIS2_PLACEMENT_3D ( 'NONE', #205, #233, #74 ) ;
#133 = DIRECTION ( 'NONE',  ( 0.0000000000000000000, 0.0000000000000000000, -1.000000000000000000 ) ) ;
#134 = DATE_TIME_ROLE ( 'classification_date' ) ;
#135 = FACE_OUTER_BOUND ( 'NONE', #179, .T. ) ;
#136 = AXIS2_PLACEMENT_3D ( 'NONE', #99, #69, #10 ) ;
#137 = FACE_OUTER_BOUND ( 'NONE', #182, .T. ) ;
#138 = TOROIDAL_SURFACE ( 'NONE', #165, 10.03999999999999900, 4.934999999999999600 ) ;
#139 = CYLINDRICAL_SURFACE ( 'NONE', #155, 4.040999999999999500 ) ;
#140 = VERTEX_POINT ( 'NONE', #249 ) ;
#141 = PERSON_AND_ORGANIZATION ( #177, #217 ) ;
#142 = CARTESIAN_POINT ( 'NONE',  ( 4.934999999999999600, -10.03999999999999400, -17.32000000000000000 ) ) ;
#143 = FACE_OUTER_BOUND ( 'NONE', #9, .T. ) ;
#144 = APPROVAL_ROLE ( '' ) ;
#145 = APPROVAL ( #19, 'UNSPECIFIED' ) ;
#146 = CARTESIAN_POINT ( 'NONE',  ( 0.0000000000000000000, -17.31999999999999700, -17.32000000000000000 ) ) ;
#147 = EDGE_CURVE ( 'NONE', #62, #62, #207, .T. ) ;
#148 = FACE_OUTER_BOUND ( 'NONE', #63, .T. ) ;
#149 = AXIS2_PLACEMENT_3D ( 'NONE', #176, #247, #196 ) ;
#150 = SHAPE_DEFINITION_REPRESENTATION ( #43, #216 ) ;
#151 = ORIENTED_EDGE ( 'NONE', *, *, #82, .F. ) ;
#152 = CARTESIAN_POINT ( 'NONE',  ( 0.0000000000000000000, -10.03999999999999900, -7.280000000000001100 ) ) ;
#153 = DESIGN_CONTEXT ( 'detailed design', #195, 'design' ) ;
#154 = ADVANCED_FACE ( 'NONE', ( #57, #53 ), #213, .T. ) ;
#155 = AXIS2_PLACEMENT_3D ( 'NONE', #41, #49, #244 ) ;
#156 = CIRCLE ( 'NONE', #149, 4.934999999999999600 ) ;
#157 = CARTESIAN_POINT ( 'NONE',  ( 0.0000000000000000000, -17.31999999999999700, -17.32000000000000000 ) ) ;
#158 = CARTESIAN_POINT ( 'NONE',  ( 0.0000000000000000000, -10.03999999999999400, -17.32000000000000000 ) ) ;
#159 = DATE_AND_TIME ( #46, #65 ) ;
#160 = EDGE_LOOP ( 'NONE', ( #1 ) ) ;
#161 = ORIENTED_EDGE ( 'NONE', *, *, #162, .F. ) ;
#162 = EDGE_CURVE ( 'NONE', #201, #201, #5, .T. ) ;
#163 = DIRECTION ( 'NONE',  ( 0.0000000000000000000, 0.0000000000000000000, 1.000000000000000000 ) ) ;
#164 = PRODUCT_DEFINITION ( 'UNKNOWN', '', #206, #153 ) ;
#165 = AXIS2_PLACEMENT_3D ( 'NONE', #152, #109, #103 ) ;
#166 = CARTESIAN_POINT ( 'NONE',  ( 0.0000000000000000000, -10.03999999999999200, -17.32000000000000000 ) ) ;
#167 = PERSON_AND_ORGANIZATION ( #177, #217 ) ;
#168 = CARTESIAN_POINT ( 'NONE',  ( 0.0000000000000000000, 0.0000000000000000000, 0.0000000000000000000 ) ) ;
#169 = DIRECTION ( 'NONE',  ( 0.0000000000000000000, 0.0000000000000000000, 1.000000000000000000 ) ) ;
#170 = CIRCLE ( 'NONE', #132, 4.040999999999999500 ) ;
#171 = ORIENTED_EDGE ( 'NONE', *, *, #189, .T. ) ;
#172 = FACE_BOUND ( 'NONE', #96, .T. ) ;
#173 = ORIENTED_EDGE ( 'NONE', *, *, #162, .T. ) ;
#174 = FACE_OUTER_BOUND ( 'NONE', #95, .T. ) ;
#175 = SECURITY_CLASSIFICATION ( '', '', #198 ) ;
#176 = CARTESIAN_POINT ( 'NONE',  ( 0.0000000000000000000, 0.0000000000000000000, -7.280000000000001100 ) ) ;
#177 = PERSON ( 'UNSPECIFIED', 'UNSPECIFIED', 'UNSPECIFIED', ('UNSPECIFIED'), ('UNSPECIFIED'), ('UNSPECIFIED') ) ;
#178 = FACE_OUTER_BOUND ( 'NONE', #130, .T. ) ;
#179 = EDGE_LOOP ( 'NONE', ( #225 ) ) ;
#180 = AXIS2_PLACEMENT_3D ( 'NONE', #22, #169, #121 ) ;
#181 = ADVANCED_FACE ( 'NONE', ( #187, #137 ), #106, .T. ) ;
#182 = EDGE_LOOP ( 'NONE', ( #237 ) ) ;
#183 = CALENDAR_DATE ( 2017, 27, 7 ) ;
#184 = EDGE_CURVE ( 'NONE', #221, #221, #31, .T. ) ;
#185 = PERSON_AND_ORGANIZATION ( #177, #217 ) ;
#186 = FACE_OUTER_BOUND ( 'NONE', #232, .T. ) ;
#187 = FACE_OUTER_BOUND ( 'NONE', #160, .T. ) ;
#188 =( LENGTH_UNIT ( ) NAMED_UNIT ( * ) SI_UNIT ( $, .METRE. ) );
#189 = EDGE_CURVE ( 'NONE', #76, #76, #170, .T. ) ;
#190 = CC_DESIGN_PERSON_AND_ORGANIZATION_ASSIGNMENT ( #28, #122, ( #39 ) ) ;
#191 = FACE_OUTER_BOUND ( 'NONE', #34, .T. ) ;
#192 = DIRECTION ( 'NONE',  ( 0.0000000000000000000, -1.000000000000000000, 0.0000000000000000000 ) ) ;
#193 = DIRECTION ( 'NONE',  ( -1.000000000000000000, -0.0000000000000000000, 0.0000000000000000000 ) ) ;
#194 = FACE_BOUND ( 'NONE', #114, .T. ) ;
#195 = APPLICATION_CONTEXT ( 'configuration controlled 3d designs of mechanical parts and assemblies' ) ;
#196 = DIRECTION ( 'NONE',  ( 1.000000000000000000, 0.0000000000000000000, 0.0000000000000000000 ) ) ;
#197 = ORIENTED_EDGE ( 'NONE', *, *, #44, .T. ) ;
#198 = SECURITY_CLASSIFICATION_LEVEL ( 'unclassified' ) ;
#199 = AXIS2_PLACEMENT_3D ( 'NONE', #157, #131, #11 ) ;
#200 = CC_DESIGN_APPROVAL ( #66, ( #175 ) ) ;
#201 = VERTEX_POINT ( 'NONE', #16 ) ;
#202 = COORDINATED_UNIVERSAL_TIME_OFFSET ( 5, 0, .BEHIND. ) ;
#203 = ORIENTED_EDGE ( 'NONE', *, *, #44, .F. ) ;
#204 = EDGE_CURVE ( 'NONE', #140, #140, #246, .T. ) ;
#205 = CARTESIAN_POINT ( 'NONE',  ( 0.0000000000000000000, -17.31999999999999700, -17.32000000000000000 ) ) ;
#206 = PRODUCT_DEFINITION_FORMATION_WITH_SPECIFIED_SOURCE ( 'ANY', '', #39, .NOT_KNOWN. ) ;
#207 = CIRCLE ( 'NONE', #199, 4.934999999999999600 ) ;
#208 = VERTEX_POINT ( 'NONE', #55 ) ;
#209 = PERSON_AND_ORGANIZATION ( #177, #217 ) ;
#210 = DIRECTION ( 'NONE',  ( 0.0000000000000000000, 0.0000000000000000000, 1.000000000000000000 ) ) ;
#211 = APPROVAL_DATE_TIME ( #124, #145 ) ;
#212 = APPROVAL_DATE_TIME ( #226, #98 ) ;
#213 = CYLINDRICAL_SURFACE ( 'NONE', #235, 4.934999999999999600 ) ;
#214 = ORIENTED_EDGE ( 'NONE', *, *, #82, .T. ) ;
#215 = AXIS2_PLACEMENT_3D ( 'NONE', #54, #56, #35 ) ;
#216 = ADVANCED_BREP_SHAPE_REPRESENTATION ( '581243100', ( #21, #180 ), #47 ) ;
#217 = ORGANIZATION ( 'UNSPECIFIED', 'UNSPECIFIED', '' ) ;
#218 = ORIENTED_EDGE ( 'NONE', *, *, #204, .T. ) ;
#219 = LOCAL_TIME ( 14, 36, 49.00000000000000000, #37 ) ;
#220 = APPLICATION_CONTEXT ( 'configuration controlled 3d designs of mechanical parts and assemblies' ) ;
#221 = VERTEX_POINT ( 'NONE', #142 ) ;
#222 = DIRECTION ( 'NONE',  ( -0.0000000000000000000, 1.000000000000000000, 2.832769448823989800E-016 ) ) ;
#223 = CC_DESIGN_PERSON_AND_ORGANIZATION_ASSIGNMENT ( #241, #248, ( #175 ) ) ;
#224 = ADVANCED_FACE ( 'NONE', ( #178, #191 ), #139, .F. ) ;
#225 = ORIENTED_EDGE ( 'NONE', *, *, #147, .F. ) ;
#226 = DATE_AND_TIME ( #83, #23 ) ;
#227 = DIRECTION ( 'NONE',  ( 0.0000000000000000000, 0.0000000000000000000, 1.000000000000000000 ) ) ;
#228 = CC_DESIGN_PERSON_AND_ORGANIZATION_ASSIGNMENT ( #30, #4, ( #206 ) ) ;
#229 = LOCAL_TIME ( 14, 36, 49.00000000000000000, #202 ) ;
#230 = FACE_OUTER_BOUND ( 'NONE', #120, .T. ) ;
#231 = DIRECTION ( 'NONE',  ( 1.000000000000000000, 0.0000000000000000000, 0.0000000000000000000 ) ) ;
#232 = EDGE_LOOP ( 'NONE', ( #119 ) ) ;
#233 = DIRECTION ( 'NONE',  ( 0.0000000000000000000, 1.000000000000000000, 2.832769448823989800E-016 ) ) ;
#234 = APPROVAL_PERSON_ORGANIZATION ( #240, #145, #123 ) ;
#235 = AXIS2_PLACEMENT_3D ( 'NONE', #93, #250, #104 ) ;
#236 = CARTESIAN_POINT ( 'NONE',  ( 4.934999999999999600, -17.31999999999999700, -17.32000000000000000 ) ) ;
#237 = ORIENTED_EDGE ( 'NONE', *, *, #147, .T. ) ;
#238 = ADVANCED_FACE ( 'NONE', ( #194, #135 ), #100, .F. ) ;
#239 = UNCERTAINTY_MEASURE_WITH_UNIT (LENGTH_MEASURE( 1.000000000000000100E-005 ), #78, 'distance_accuracy_value', 'NONE');
#240 = PERSON_AND_ORGANIZATION ( #177, #217 ) ;
#241 = PERSON_AND_ORGANIZATION ( #177, #217 ) ;
#242 = CC_DESIGN_APPROVAL ( #98, ( #206 ) ) ;
#243 = CARTESIAN_POINT ( 'NONE',  ( 4.040999999999999500, 0.0000000000000000000, 0.0000000000000000000 ) ) ;
#244 = DIRECTION ( 'NONE',  ( 1.000000000000000000, 0.0000000000000000000, 0.0000000000000000000 ) ) ;
#245 = PERSON_AND_ORGANIZATION_ROLE ( 'creator' ) ;
#246 = CIRCLE ( 'NONE', #136, 4.040999999999999500 ) ;
#247 = DIRECTION ( 'NONE',  ( 0.0000000000000000000, 0.0000000000000000000, 1.000000000000000000 ) ) ;
#248 = PERSON_AND_ORGANIZATION_ROLE ( 'classification_officer' ) ;
#249 = CARTESIAN_POINT ( 'NONE',  ( 4.040999999999999500, 0.0000000000000000000, -7.280000000000001100 ) ) ;
#250 = DIRECTION ( 'NONE',  ( -0.0000000000000000000, -0.0000000000000000000, 1.000000000000000000 ) ) ;
#251 = ORIENTED_EDGE ( 'NONE', *, *, #81, .T. ) ;
#252 = DIRECTION ( 'NONE',  ( 1.000000000000000000, 0.0000000000000000000, 0.0000000000000000000 ) ) ;
ENDSEC;
END-ISO-10303-21;
