ISO-10303-21;
HEADER;
FILE_DESCRIPTION (( 'STEP AP203' ),
    '1' );
FILE_NAME ('581243080.STEP',
    '2017-07-27T18:32:20',
    ( '' ),
    ( '' ),
    'SwSTEP 2.0',
    'SolidWorks 2017',
    '' );
FILE_SCHEMA (( 'CONFIG_CONTROL_DESIGN' ));
ENDSEC;

DATA;
#1 = AXIS2_PLACEMENT_3D ( 'NONE', #243, #76, #60 ) ;
#2 = DIRECTION ( 'NONE',  ( -0.0000000000000000000, -0.0000000000000000000, 1.000000000000000000 ) ) ;
#3 = CARTESIAN_POINT ( 'NONE',  ( 0.0000000000000000000, -7.869999999999999200, -12.53999999999999900 ) ) ;
#4 = APPROVAL_STATUS ( 'not_yet_approved' ) ;
#5 = EDGE_LOOP ( 'NONE', ( #118 ) ) ;
#6 = EDGE_LOOP ( 'NONE', ( #211 ) ) ;
#7 = PERSON_AND_ORGANIZATION_ROLE ( 'design_owner' ) ;
#8 = PERSON_AND_ORGANIZATION_ROLE ( 'design_supplier' ) ;
#9 = CARTESIAN_POINT ( 'NONE',  ( 3.935000000000000100, 0.0000000000000000000, -4.669999999999999000 ) ) ;
#10 = CC_DESIGN_DATE_AND_TIME_ASSIGNMENT ( #245, #159, ( #196 ) ) ;
#11 = ORIENTED_EDGE ( 'NONE', *, *, #35, .T. ) ;
#12 = FACE_OUTER_BOUND ( 'NONE', #107, .T. ) ;
#13 = PERSON_AND_ORGANIZATION_ROLE ( 'creator' ) ;
#14 = DIRECTION ( 'NONE',  ( -0.0000000000000000000, -0.0000000000000000000, 1.000000000000000000 ) ) ;
#15 = CARTESIAN_POINT ( 'NONE',  ( 0.0000000000000000000, 0.0000000000000000000, -4.669999999999999000 ) ) ;
#16 = AXIS2_PLACEMENT_3D ( 'NONE', #116, #64, #197 ) ;
#17 = VERTEX_POINT ( 'NONE', #73 ) ;
#18 = DIRECTION ( 'NONE',  ( 0.0000000000000000000, 0.0000000000000000000, 1.000000000000000000 ) ) ;
#19 = ORIENTED_EDGE ( 'NONE', *, *, #37, .F. ) ;
#20 = CIRCLE ( 'NONE', #112, 3.935000000000000100 ) ;
#21 = PERSON_AND_ORGANIZATION ( #65, #90 ) ;
#22 = APPLICATION_PROTOCOL_DEFINITION ( 'international standard', 'config_control_design', 1994, #75 ) ;
#23 = ADVANCED_FACE ( 'NONE', ( #82, #247 ), #188, .T. ) ;
#24 =( NAMED_UNIT ( * ) PLANE_ANGLE_UNIT ( ) SI_UNIT ( $, .RADIAN. ) );
#25 = CARTESIAN_POINT ( 'NONE',  ( 0.0000000000000000000, -7.869999999999999200, -12.53999999999999900 ) ) ;
#26 = APPROVAL_DATE_TIME ( #204, #139 ) ;
#27 = CARTESIAN_POINT ( 'NONE',  ( 0.0000000000000000000, 0.0000000000000000000, 0.0000000000000000000 ) ) ;
#28 = FACE_BOUND ( 'NONE', #218, .T. ) ;
#29 = ORIENTED_EDGE ( 'NONE', *, *, #221, .T. ) ;
#30 = FACE_OUTER_BOUND ( 'NONE', #80, .T. ) ;
#31 = ADVANCED_FACE ( 'NONE', ( #66, #176 ), #193, .F. ) ;
#32 = CC_DESIGN_APPROVAL ( #139, ( #244 ) ) ;
#33 = AXIS2_PLACEMENT_3D ( 'NONE', #202, #123, #18 ) ;
#34 = CALENDAR_DATE ( 2017, 27, 7 ) ;
#35 = EDGE_CURVE ( 'NONE', #99, #99, #55, .T. ) ;
#36 = CARTESIAN_POINT ( 'NONE',  ( 0.0000000000000000000, 0.0000000000000000000, -4.669999999999999000 ) ) ;
#37 = EDGE_CURVE ( 'NONE', #81, #81, #110, .T. ) ;
#38 = CIRCLE ( 'NONE', #222, 3.218000000000000400 ) ;
#39 = ORIENTED_EDGE ( 'NONE', *, *, #179, .F. ) ;
#40 = APPROVAL_ROLE ( '' ) ;
#41 = DIRECTION ( 'NONE',  ( 0.0000000000000000000, 1.000000000000000000, 6.123233995736766000E-017 ) ) ;
#42 = ADVANCED_BREP_SHAPE_REPRESENTATION ( '581243080', ( #114, #209 ), #131 ) ;
#43 = LOCAL_TIME ( 14, 32, 20.00000000000000000, #147 ) ;
#44 = ORIENTED_EDGE ( 'NONE', *, *, #179, .T. ) ;
#45 = CC_DESIGN_DATE_AND_TIME_ASSIGNMENT ( #141, #88, ( #244 ) ) ;
#46 = CIRCLE ( 'NONE', #113, 3.935000000000000100 ) ;
#47 = DIRECTION ( 'NONE',  ( 1.000000000000000000, 0.0000000000000000000, 0.0000000000000000000 ) ) ;
#48 = APPROVAL_STATUS ( 'not_yet_approved' ) ;
#49 = CIRCLE ( 'NONE', #239, 3.218000000000000400 ) ;
#50 = ORIENTED_EDGE ( 'NONE', *, *, #71, .F. ) ;
#51 =( NAMED_UNIT ( * ) SI_UNIT ( $, .STERADIAN. ) SOLID_ANGLE_UNIT ( ) );
#52 = AXIS2_PLACEMENT_3D ( 'NONE', #181, #100, #235 ) ;
#53 = CC_DESIGN_SECURITY_CLASSIFICATION ( #196, ( #96 ) ) ;
#54 = APPROVAL_PERSON_ORGANIZATION ( #56, #139, #40 ) ;
#55 = CIRCLE ( 'NONE', #194, 3.935000000000000100 ) ;
#56 = PERSON_AND_ORGANIZATION ( #65, #90 ) ;
#57 = ORIENTED_EDGE ( 'NONE', *, *, #35, .F. ) ;
#58 = EDGE_CURVE ( 'NONE', #121, #121, #151, .T. ) ;
#59 = DATE_AND_TIME ( #162, #43 ) ;
#60 = DIRECTION ( 'NONE',  ( 0.0000000000000000000, -3.395709128234012200E-016, -1.000000000000000000 ) ) ;
#61 = EDGE_LOOP ( 'NONE', ( #145 ) ) ;
#62 = AXIS2_PLACEMENT_3D ( 'NONE', #217, #252, #236 ) ;
#63 = DIRECTION ( 'NONE',  ( 1.000000000000000000, 0.0000000000000000000, 0.0000000000000000000 ) ) ;
#64 = DIRECTION ( 'NONE',  ( -1.000000000000000000, -0.0000000000000000000, 0.0000000000000000000 ) ) ;
#65 = PERSON ( 'UNSPECIFIED', 'UNSPECIFIED', 'UNSPECIFIED', ('UNSPECIFIED'), ('UNSPECIFIED'), ('UNSPECIFIED') ) ;
#66 = FACE_OUTER_BOUND ( 'NONE', #189, .T. ) ;
#67 = ADVANCED_FACE ( 'NONE', ( #28, #163 ), #220, .T. ) ;
#68 = CC_DESIGN_PERSON_AND_ORGANIZATION_ASSIGNMENT ( #192, #154, ( #96 ) ) ;
#69 = VERTEX_POINT ( 'NONE', #223 ) ;
#70 = CLOSED_SHELL ( 'NONE', ( #86, #23, #198, #191, #67, #149, #152, #31 ) ) ;
#71 = EDGE_CURVE ( 'NONE', #173, #173, #49, .T. ) ;
#72 = APPROVAL_ROLE ( '' ) ;
#73 = CARTESIAN_POINT ( 'NONE',  ( 0.0000000000000000000, -12.53999999999999900, -9.321999999999995600 ) ) ;
#74 = EDGE_LOOP ( 'NONE', ( #44 ) ) ;
#75 = APPLICATION_CONTEXT ( 'configuration controlled 3d designs of mechanical parts and assemblies' ) ;
#76 = DIRECTION ( 'NONE',  ( 0.0000000000000000000, -1.000000000000000000, 4.679825256812442100E-016 ) ) ;
#77 = EDGE_LOOP ( 'NONE', ( #57 ) ) ;
#78 = EDGE_LOOP ( 'NONE', ( #50 ) ) ;
#79 = PRODUCT_DEFINITION_SHAPE ( 'NONE', 'NONE',  #244 ) ;
#80 = EDGE_LOOP ( 'NONE', ( #249 ) ) ;
#81 = VERTEX_POINT ( 'NONE', #230 ) ;
#82 = FACE_OUTER_BOUND ( 'NONE', #5, .T. ) ;
#83 = CARTESIAN_POINT ( 'NONE',  ( 0.0000000000000000000, -12.53999999999999900, -12.53999999999999700 ) ) ;
#84 = CC_DESIGN_APPROVAL ( #124, ( #96 ) ) ;
#85 = CALENDAR_DATE ( 2017, 27, 7 ) ;
#86 = ADVANCED_FACE ( 'NONE', ( #87, #157 ), #94, .T. ) ;
#87 = FACE_OUTER_BOUND ( 'NONE', #6, .T. ) ;
#88 = DATE_TIME_ROLE ( 'creation_date' ) ;
#89 = PERSON_AND_ORGANIZATION ( #65, #90 ) ;
#90 = ORGANIZATION ( 'UNSPECIFIED', 'UNSPECIFIED', '' ) ;
#91 =( LENGTH_UNIT ( ) NAMED_UNIT ( * ) SI_UNIT ( $, .METRE. ) );
#92 = CC_DESIGN_APPROVAL ( #246, ( #196 ) ) ;
#93 = COORDINATED_UNIVERSAL_TIME_OFFSET ( 5, 0, .BEHIND. ) ;
#94 = CYLINDRICAL_SURFACE ( 'NONE', #216, 3.935000000000000500 ) ;
#95 = UNCERTAINTY_MEASURE_WITH_UNIT (LENGTH_MEASURE( 1.000000000000000100E-005 ), #177, 'distance_accuracy_value', 'NONE');
#96 = PRODUCT_DEFINITION_FORMATION_WITH_SPECIFIED_SOURCE ( 'ANY', '', #125, .NOT_KNOWN. ) ;
#97 = CARTESIAN_POINT ( 'NONE',  ( 0.0000000000000000000, 0.0000000000000000000, -4.669999999999999000 ) ) ;
#98 = AXIS2_PLACEMENT_3D ( 'NONE', #3, #171, #130 ) ;
#99 = VERTEX_POINT ( 'NONE', #138 ) ;
#100 = DIRECTION ( 'NONE',  ( 0.0000000000000000000, 0.0000000000000000000, 1.000000000000000000 ) ) ;
#101 = CC_DESIGN_PERSON_AND_ORGANIZATION_ASSIGNMENT ( #225, #8, ( #96 ) ) ;
#102 = PLANE ( 'NONE',  #201 ) ;
#103 = PERSON_AND_ORGANIZATION ( #65, #90 ) ;
#104 = LOCAL_TIME ( 14, 32, 20.00000000000000000, #232 ) ;
#105 = DIRECTION ( 'NONE',  ( 1.000000000000000000, 0.0000000000000000000, 0.0000000000000000000 ) ) ;
#106 = CARTESIAN_POINT ( 'NONE',  ( 3.935000000000000100, -7.869999999999999200, -12.53999999999999900 ) ) ;
#107 = EDGE_LOOP ( 'NONE', ( #237 ) ) ;
#108 = FACE_OUTER_BOUND ( 'NONE', #212, .T. ) ;
#109 = LOCAL_TIME ( 14, 32, 20.00000000000000000, #213 ) ;
#110 = CIRCLE ( 'NONE', #62, 3.218000000000000000 ) ;
#111 = DIRECTION ( 'NONE',  ( 0.0000000000000000000, -5.553947636420356800E-016, -1.000000000000000000 ) ) ;
#112 = AXIS2_PLACEMENT_3D ( 'NONE', #250, #231, #63 ) ;
#113 = AXIS2_PLACEMENT_3D ( 'NONE', #97, #251, #224 ) ;
#114 = MANIFOLD_SOLID_BREP ( 'Sweep-Thin1', #70 ) ;
#115 = CIRCLE ( 'NONE', #184, 3.218000000000000000 ) ;
#116 = CARTESIAN_POINT ( 'NONE',  ( 0.0000000000000000000, -7.870000000000000100, -4.669999999999999000 ) ) ;
#117 = APPROVAL_STATUS ( 'not_yet_approved' ) ;
#118 = ORIENTED_EDGE ( 'NONE', *, *, #172, .F. ) ;
#119 = FACE_OUTER_BOUND ( 'NONE', #61, .T. ) ;
#120 = PRODUCT_RELATED_PRODUCT_CATEGORY ( 'detail', '', ( #125 ) ) ;
#121 = VERTEX_POINT ( 'NONE', #106 ) ;
#122 = DATE_AND_TIME ( #85, #109 ) ;
#123 = DIRECTION ( 'NONE',  ( -1.000000000000000000, -0.0000000000000000000, 0.0000000000000000000 ) ) ;
#124 = APPROVAL ( #117, 'UNSPECIFIED' ) ;
#125 = PRODUCT ( '581243080', '581243080', '', ( #206 ) ) ;
#126 = CARTESIAN_POINT ( 'NONE',  ( 0.0000000000000000000, -12.53999999999999900, -12.53999999999999700 ) ) ;
#127 = DIRECTION ( 'NONE',  ( 0.0000000000000000000, 1.000000000000000000, 6.123233995736766000E-017 ) ) ;
#128 = LOCAL_TIME ( 14, 32, 20.00000000000000000, #93 ) ;
#129 = APPLICATION_CONTEXT ( 'configuration controlled 3d designs of mechanical parts and assemblies' ) ;
#130 = DIRECTION ( 'NONE',  ( 1.000000000000000000, 0.0000000000000000000, 0.0000000000000000000 ) ) ;
#131 =( GEOMETRIC_REPRESENTATION_CONTEXT ( 3 ) GLOBAL_UNCERTAINTY_ASSIGNED_CONTEXT ( ( #95 ) ) GLOBAL_UNIT_ASSIGNED_CONTEXT ( ( #177, #24, #51 ) ) REPRESENTATION_CONTEXT ( 'NONE', 'WORKASPACE' ) );
#132 = SECURITY_CLASSIFICATION_LEVEL ( 'unclassified' ) ;
#133 = ORIENTED_EDGE ( 'NONE', *, *, #234, .F. ) ;
#134 = CYLINDRICAL_SURFACE ( 'NONE', #1, 3.218000000000000400 ) ;
#135 = DIRECTION ( 'NONE',  ( 1.000000000000000000, 0.0000000000000000000, 0.0000000000000000000 ) ) ;
#136 = APPROVAL_ROLE ( '' ) ;
#137 = TOROIDAL_SURFACE ( 'NONE', #16, 7.870000000000000100, 3.218000000000000000 ) ;
#138 = CARTESIAN_POINT ( 'NONE',  ( 3.935000000000000100, -12.53999999999999900, -12.53999999999999700 ) ) ;
#139 = APPROVAL ( #48, 'UNSPECIFIED' ) ;
#140 = CC_DESIGN_PERSON_AND_ORGANIZATION_ASSIGNMENT ( #207, #13, ( #244 ) ) ;
#141 = DATE_AND_TIME ( #34, #160 ) ;
#142 = CALENDAR_DATE ( 2017, 27, 7 ) ;
#143 = FACE_OUTER_BOUND ( 'NONE', #175, .T. ) ;
#144 = SHAPE_DEFINITION_REPRESENTATION ( #79, #42 ) ;
#145 = ORIENTED_EDGE ( 'NONE', *, *, #172, .T. ) ;
#146 = DIRECTION ( 'NONE',  ( 1.000000000000000000, 0.0000000000000000000, 0.0000000000000000000 ) ) ;
#147 = COORDINATED_UNIVERSAL_TIME_OFFSET ( 5, 0, .BEHIND. ) ;
#148 = FACE_OUTER_BOUND ( 'NONE', #78, .T. ) ;
#149 = ADVANCED_FACE ( 'NONE', ( #12, #108 ), #134, .F. ) ;
#150 = ORIENTED_EDGE ( 'NONE', *, *, #234, .T. ) ;
#151 = CIRCLE ( 'NONE', #98, 3.935000000000000100 ) ;
#152 = ADVANCED_FACE ( 'NONE', ( #143, #148 ), #137, .F. ) ;
#153 = AXIS2_PLACEMENT_3D ( 'NONE', #15, #14, #203 ) ;
#154 = PERSON_AND_ORGANIZATION_ROLE ( 'creator' ) ;
#155 = EDGE_LOOP ( 'NONE', ( #227 ) ) ;
#156 = AXIS2_PLACEMENT_3D ( 'NONE', #190, #2, #158 ) ;
#157 = FACE_OUTER_BOUND ( 'NONE', #210, .T. ) ;
#158 = DIRECTION ( 'NONE',  ( 1.000000000000000000, 0.0000000000000000000, 0.0000000000000000000 ) ) ;
#159 = DATE_TIME_ROLE ( 'classification_date' ) ;
#160 = LOCAL_TIME ( 14, 32, 20.00000000000000000, #241 ) ;
#161 = CARTESIAN_POINT ( 'NONE',  ( 0.0000000000000000000, -12.53999999999999900, -12.53999999999999700 ) ) ;
#162 = CALENDAR_DATE ( 2017, 27, 7 ) ;
#163 = FACE_OUTER_BOUND ( 'NONE', #242, .T. ) ;
#164 = CARTESIAN_POINT ( 'NONE',  ( 0.0000000000000000000, -7.869999999999999200, -12.53999999999999900 ) ) ;
#165 = DIRECTION ( 'NONE',  ( 0.0000000000000000000, 0.0000000000000000000, 1.000000000000000000 ) ) ;
#166 = CALENDAR_DATE ( 2017, 27, 7 ) ;
#167 = FACE_BOUND ( 'NONE', #74, .T. ) ;
#168 = CARTESIAN_POINT ( 'NONE',  ( 0.0000000000000000000, -7.869999999999999200, -9.321999999999999200 ) ) ;
#169 = FACE_OUTER_BOUND ( 'NONE', #77, .T. ) ;
#170 = ORIENTED_EDGE ( 'NONE', *, *, #58, .T. ) ;
#171 = DIRECTION ( 'NONE',  ( 0.0000000000000000000, 1.000000000000000000, 6.123233995736766000E-017 ) ) ;
#172 = EDGE_CURVE ( 'NONE', #248, #248, #46, .T. ) ;
#173 = VERTEX_POINT ( 'NONE', #168 ) ;
#174 = DIMENSIONAL_EXPONENTS ( 1.000000000000000000, 0.0000000000000000000, 0.0000000000000000000, 0.0000000000000000000, 0.0000000000000000000, 0.0000000000000000000, 0.0000000000000000000 ) ;
#175 = EDGE_LOOP ( 'NONE', ( #150 ) ) ;
#176 = FACE_OUTER_BOUND ( 'NONE', #155, .T. ) ;
#177 =( CONVERSION_BASED_UNIT ( 'INCH', #178 ) LENGTH_UNIT ( ) NAMED_UNIT ( #174 ) );
#178 = LENGTH_MEASURE_WITH_UNIT ( LENGTH_MEASURE( 0.02539999999999999900 ), #91 );
#179 = EDGE_CURVE ( 'NONE', #17, #17, #38, .T. ) ;
#180 = DESIGN_CONTEXT ( 'detailed design', #129, 'design' ) ;
#181 = CARTESIAN_POINT ( 'NONE',  ( 0.0000000000000000000, 0.0000000000000000000, 0.0000000000000000000 ) ) ;
#182 = CARTESIAN_POINT ( 'NONE',  ( 3.218000000000000000, 0.0000000000000000000, -4.669999999999999000 ) ) ;
#183 = DIRECTION ( 'NONE',  ( 0.0000000000000000000, 0.0000000000000000000, 1.000000000000000000 ) ) ;
#184 = AXIS2_PLACEMENT_3D ( 'NONE', #36, #238, #47 ) ;
#185 = APPROVAL_PERSON_ORGANIZATION ( #21, #246, #136 ) ;
#186 = APPLICATION_PROTOCOL_DEFINITION ( 'international standard', 'config_control_design', 1994, #129 ) ;
#187 = VERTEX_POINT ( 'NONE', #182 ) ;
#188 = TOROIDAL_SURFACE ( 'NONE', #33, 7.870000000000000100, 3.935000000000000100 ) ;
#189 = EDGE_LOOP ( 'NONE', ( #133 ) ) ;
#190 = CARTESIAN_POINT ( 'NONE',  ( 0.0000000000000000000, 0.0000000000000000000, -4.669999999999999000 ) ) ;
#191 = ADVANCED_FACE ( 'NONE', ( #167, #169 ), #102, .F. ) ;
#192 = PERSON_AND_ORGANIZATION ( #65, #90 ) ;
#193 = CYLINDRICAL_SURFACE ( 'NONE', #153, 3.218000000000000000 ) ;
#194 = AXIS2_PLACEMENT_3D ( 'NONE', #83, #41, #146 ) ;
#195 = APPROVAL_DATE_TIME ( #59, #124 ) ;
#196 = SECURITY_CLASSIFICATION ( '', '', #132 ) ;
#197 = DIRECTION ( 'NONE',  ( 0.0000000000000000000, 0.0000000000000000000, 1.000000000000000000 ) ) ;
#198 = ADVANCED_FACE ( 'NONE', ( #119, #30 ), #219, .T. ) ;
#199 = PERSON_AND_ORGANIZATION ( #65, #90 ) ;
#200 = EDGE_LOOP ( 'NONE', ( #170 ) ) ;
#201 = AXIS2_PLACEMENT_3D ( 'NONE', #161, #214, #105 ) ;
#202 = CARTESIAN_POINT ( 'NONE',  ( 0.0000000000000000000, -7.870000000000000100, -4.669999999999999000 ) ) ;
#203 = DIRECTION ( 'NONE',  ( 1.000000000000000000, 0.0000000000000000000, 0.0000000000000000000 ) ) ;
#204 = DATE_AND_TIME ( #166, #128 ) ;
#205 = APPROVAL_DATE_TIME ( #122, #246 ) ;
#206 = MECHANICAL_CONTEXT ( 'NONE', #75, 'mechanical' ) ;
#207 = PERSON_AND_ORGANIZATION ( #65, #90 ) ;
#208 = DIRECTION ( 'NONE',  ( 0.0000000000000000000, 1.000000000000000000, 1.224646799147353200E-016 ) ) ;
#209 = AXIS2_PLACEMENT_3D ( 'NONE', #27, #240, #135 ) ;
#210 = EDGE_LOOP ( 'NONE', ( #11 ) ) ;
#211 = ORIENTED_EDGE ( 'NONE', *, *, #58, .F. ) ;
#212 = EDGE_LOOP ( 'NONE', ( #39 ) ) ;
#213 = COORDINATED_UNIVERSAL_TIME_OFFSET ( 5, 0, .BEHIND. ) ;
#214 = DIRECTION ( 'NONE',  ( -0.0000000000000000000, 1.000000000000000000, 6.123233995736766000E-017 ) ) ;
#215 = DIRECTION ( 'NONE',  ( 0.0000000000000000000, -1.000000000000000000, 4.679825256812442100E-016 ) ) ;
#216 = AXIS2_PLACEMENT_3D ( 'NONE', #164, #215, #111 ) ;
#217 = CARTESIAN_POINT ( 'NONE',  ( 0.0000000000000000000, 0.0000000000000000000, 0.0000000000000000000 ) ) ;
#218 = EDGE_LOOP ( 'NONE', ( #19 ) ) ;
#219 = CYLINDRICAL_SURFACE ( 'NONE', #156, 3.935000000000000100 ) ;
#220 = PLANE ( 'NONE',  #52 ) ;
#221 = EDGE_CURVE ( 'NONE', #69, #69, #20, .T. ) ;
#222 = AXIS2_PLACEMENT_3D ( 'NONE', #126, #127, #165 ) ;
#223 = CARTESIAN_POINT ( 'NONE',  ( 3.935000000000000100, 0.0000000000000000000, 0.0000000000000000000 ) ) ;
#224 = DIRECTION ( 'NONE',  ( 1.000000000000000000, 0.0000000000000000000, 0.0000000000000000000 ) ) ;
#225 = PERSON_AND_ORGANIZATION ( #65, #90 ) ;
#226 = CC_DESIGN_PERSON_AND_ORGANIZATION_ASSIGNMENT ( #89, #228, ( #196 ) ) ;
#227 = ORIENTED_EDGE ( 'NONE', *, *, #37, .T. ) ;
#228 = PERSON_AND_ORGANIZATION_ROLE ( 'classification_officer' ) ;
#229 = APPROVAL_PERSON_ORGANIZATION ( #103, #124, #72 ) ;
#230 = CARTESIAN_POINT ( 'NONE',  ( 3.218000000000000000, 0.0000000000000000000, 0.0000000000000000000 ) ) ;
#231 = DIRECTION ( 'NONE',  ( 0.0000000000000000000, 0.0000000000000000000, 1.000000000000000000 ) ) ;
#232 = COORDINATED_UNIVERSAL_TIME_OFFSET ( 5, 0, .BEHIND. ) ;
#233 = CC_DESIGN_PERSON_AND_ORGANIZATION_ASSIGNMENT ( #199, #7, ( #125 ) ) ;
#234 = EDGE_CURVE ( 'NONE', #187, #187, #115, .T. ) ;
#235 = DIRECTION ( 'NONE',  ( 1.000000000000000000, 0.0000000000000000000, -0.0000000000000000000 ) ) ;
#236 = DIRECTION ( 'NONE',  ( 1.000000000000000000, 0.0000000000000000000, 0.0000000000000000000 ) ) ;
#237 = ORIENTED_EDGE ( 'NONE', *, *, #71, .T. ) ;
#238 = DIRECTION ( 'NONE',  ( -0.0000000000000000000, -0.0000000000000000000, 1.000000000000000000 ) ) ;
#239 = AXIS2_PLACEMENT_3D ( 'NONE', #25, #208, #183 ) ;
#240 = DIRECTION ( 'NONE',  ( 0.0000000000000000000, 0.0000000000000000000, 1.000000000000000000 ) ) ;
#241 = COORDINATED_UNIVERSAL_TIME_OFFSET ( 5, 0, .BEHIND. ) ;
#242 = EDGE_LOOP ( 'NONE', ( #29 ) ) ;
#243 = CARTESIAN_POINT ( 'NONE',  ( 0.0000000000000000000, -7.869999999999999200, -12.53999999999999900 ) ) ;
#244 = PRODUCT_DEFINITION ( 'UNKNOWN', '', #96, #180 ) ;
#245 = DATE_AND_TIME ( #142, #104 ) ;
#246 = APPROVAL ( #4, 'UNSPECIFIED' ) ;
#247 = FACE_OUTER_BOUND ( 'NONE', #200, .T. ) ;
#248 = VERTEX_POINT ( 'NONE', #9 ) ;
#249 = ORIENTED_EDGE ( 'NONE', *, *, #221, .F. ) ;
#250 = CARTESIAN_POINT ( 'NONE',  ( 0.0000000000000000000, 0.0000000000000000000, 0.0000000000000000000 ) ) ;
#251 = DIRECTION ( 'NONE',  ( 0.0000000000000000000, 0.0000000000000000000, 1.000000000000000000 ) ) ;
#252 = DIRECTION ( 'NONE',  ( 0.0000000000000000000, 0.0000000000000000000, 1.000000000000000000 ) ) ;
ENDSEC;
END-ISO-10303-21;
