ISO-10303-21;
HEADER;
FILE_DESCRIPTION (( 'STEP AP203' ),
    '1' );
FILE_NAME ('581243020.STEP',
    '2015-12-04T19:37:56',
    ( '' ),
    ( '' ),
    'SwSTEP 2.0',
    'SolidWorks 2015',
    '' );
FILE_SCHEMA (( 'CONFIG_CONTROL_DESIGN' ));
ENDSEC;

DATA;
#1 = DIRECTION ( 'NONE',  ( 3.941387115526045900E-031, -1.000000000000000000, 1.728885725179741700E-018 ) ) ;
#2 = CC_DESIGN_APPROVAL ( #199, ( #207 ) ) ;
#3 = EDGE_LOOP ( 'NONE', ( #221 ) ) ;
#4 = VERTEX_POINT ( 'NONE', #128 ) ;
#5 = FACE_OUTER_BOUND ( 'NONE', #80, .T. ) ;
#6 = CARTESIAN_POINT ( 'NONE',  ( 2.480314960630017700, 3.858267716535444900, -2.480314960629924400 ) ) ;
#7 = CARTESIAN_POINT ( 'NONE',  ( 2.480314960630017700, 5.098425196850400600, -1.011811023622034600 ) ) ;
#8 = CIRCLE ( 'NONE', #258, 1.011811023622052100 ) ;
#9 = APPROVAL_DATE_TIME ( #198, #84 ) ;
#10 = PLANE ( 'NONE',  #73 ) ;
#11 = DIRECTION ( 'NONE',  ( -3.939573297233375300E-031, 1.000000000000000000, 1.728885725179311000E-018 ) ) ;
#12 = CARTESIAN_POINT ( 'NONE',  ( 2.480314960630017700, 3.858267716535443500, 2.480314960629994600 ) ) ;
#13 = CARTESIAN_POINT ( 'NONE',  ( 5.098425196850475200, 5.098425196850400600, -1.011811023621999500 ) ) ;
#14 = FACE_BOUND ( 'NONE', #69, .T. ) ;
#15 = CARTESIAN_POINT ( 'NONE',  ( 0.0000000000000000000, 0.0000000000000000000, 0.0000000000000000000 ) ) ;
#16 = CC_DESIGN_DATE_AND_TIME_ASSIGNMENT ( #31, #248, ( #58 ) ) ;
#17 = EDGE_LOOP ( 'NONE', ( #22 ) ) ;
#18 = CARTESIAN_POINT ( 'NONE',  ( 0.4346749205706813000, 6.110236220472469200, 3.556992589148088100E-014 ) ) ;
#19 = CARTESIAN_POINT ( 'NONE',  ( 1.011811023622114100, 2.618110236220454500, 3.520947448010608200E-014 ) ) ;
#20 = PERSON_AND_ORGANIZATION ( #178, #86 ) ;
#21 = VERTEX_POINT ( 'NONE', #177 ) ;
#22 = ORIENTED_EDGE ( 'NONE', *, *, #266, .F. ) ;
#23 = CC_DESIGN_APPROVAL ( #115, ( #58 ) ) ;
#24 = ORIENTED_EDGE ( 'NONE', *, *, #173, .F. ) ;
#25 = ORIENTED_EDGE ( 'NONE', *, *, #197, .F. ) ;
#26 = PERSON_AND_ORGANIZATION ( #178, #86 ) ;
#27 = CARTESIAN_POINT ( 'NONE',  ( 2.480314960630017700, 6.338582677165383900, 3.548618085030055000E-014 ) ) ;
#28 = CARTESIAN_POINT ( 'NONE',  ( 2.480314960630017700, 4.086614173228359600, -2.023622047244089600 ) ) ;
#29 = CALENDAR_DATE ( 2015, 4, 12 ) ;
#30 = AXIS2_PLACEMENT_3D ( 'NONE', #117, #239, #63 ) ;
#31 = DATE_AND_TIME ( #29, #109 ) ;
#32 = CARTESIAN_POINT ( 'NONE',  ( -1.240157480314911600, 4.797512533690659900, 3.568400733060225000E-014 ) ) ;
#33 = CARTESIAN_POINT ( 'NONE',  ( 5.098425196850369500, 6.224409448818938100, 5.272968719347081800E-014 ) ) ;
#34 =( BOUNDED_SURFACE ( )  B_SPLINE_SURFACE ( 3, 3, ( 
 ( #194, #209, #107, #278 ),
 ( #217, #189, #120, #179 ),
 ( #6, #231, #241, #296 ),
 ( #118, #218, #273, #150 ),
 ( #12, #81, #130, #61 ),
 ( #97, #274, #68, #46 ),
 ( #27, #96, #32, #94 ) ),
 .UNSPECIFIED., .T., .F., .F. ) 
 B_SPLINE_SURFACE_WITH_KNOTS ( ( 4, 3, 4 ),
 ( 4, 4 ),
 ( 0.0000000000000000000, 0.5000000000000000000, 1.000000000000000000 ),
 ( 0.0000000000000000000, 1.000000000000000000 ),
 .UNSPECIFIED. ) 
 GEOMETRIC_REPRESENTATION_ITEM ( )  RATIONAL_B_SPLINE_SURFACE ( (
 ( 1.000000000000000000, 0.8047378541243649400, 0.8047378541243649400, 1.000000000000000000),
 ( 0.3333333333333333700, 0.2682459513747883500, 0.2682459513747883500, 0.3333333333333333700),
 ( 0.3333333333333333700, 0.2682459513747883500, 0.2682459513747883500, 0.3333333333333333700),
 ( 1.000000000000000000, 0.8047378541243649400, 0.8047378541243649400, 1.000000000000000000),
 ( 0.3333333333333333700, 0.2682459513747883500, 0.2682459513747883500, 0.3333333333333333700),
 ( 0.3333333333333333700, 0.2682459513747883500, 0.2682459513747883500, 0.3333333333333333700),
 ( 1.000000000000000000, 0.8047378541243649400, 0.8047378541243649400, 1.000000000000000000) ) ) 
 REPRESENTATION_ITEM ( '' )  SURFACE ( )  );
#35 = CARTESIAN_POINT ( 'NONE',  ( -1.011811023621995900, 4.663750276279791300, 3.564830397287715800E-014 ) ) ;
#36 = PERSON_AND_ORGANIZATION ( #178, #86 ) ;
#37 = EDGE_LOOP ( 'NONE', ( #88 ) ) ;
#38 = CARTESIAN_POINT ( 'NONE',  ( 2.480314960630017700, 4.086614173228357800, 2.023622047244160200 ) ) ;
#39 = CARTESIAN_POINT ( 'NONE',  ( 0.4346749205706813000, 6.110236220472468300, 2.023622047244161100 ) ) ;
#40 = AXIS2_PLACEMENT_3D ( 'NONE', #263, #112, #234 ) ;
#41 = CARTESIAN_POINT ( 'NONE',  ( 0.4346749205706813000, 6.110236220472468300, -2.023622047244090000 ) ) ;
#42 = SECURITY_CLASSIFICATION ( '', '', #155 ) ;
#43 = EDGE_CURVE ( 'NONE', #4, #4, #8, .T. ) ;
#44 = CC_DESIGN_PERSON_AND_ORGANIZATION_ASSIGNMENT ( #36, #275, ( #207 ) ) ;
#45 = ADVANCED_FACE ( 'NONE', ( #250, #159 ), #183, .F. ) ;
#46 = CARTESIAN_POINT ( 'NONE',  ( -1.240157480314911600, 2.618110236220454900, 2.480314960629995900 ) ) ;
#47 = DIRECTION ( 'NONE',  ( 0.0000000000000000000, 0.0000000000000000000, -1.000000000000000000 ) ) ;
#48 = CARTESIAN_POINT ( 'NONE',  ( -1.125984251968503500, 0.0000000000000000000, 5.239241653254124000E-014 ) ) ;
#49 = MANIFOLD_SOLID_BREP ( '1', #211 ) ;
#50 = DIRECTION ( 'NONE',  ( 0.0000000000000000000, 0.0000000000000000000, -1.000000000000000000 ) ) ;
#51 = DATE_AND_TIME ( #95, #139 ) ;
#52 = EDGE_LOOP ( 'NONE', ( #85 ) ) ;
#53 = DIRECTION ( 'NONE',  ( 0.0000000000000000000, 0.0000000000000000000, -1.000000000000000000 ) ) ;
#54 = ADVANCED_BREP_SHAPE_REPRESENTATION ( '581243020', ( #49, #111 ), #70 ) ;
#55 = CARTESIAN_POINT ( 'NONE',  ( -1.011811023621995700, 4.663750276279791300, 2.023622047244161100 ) ) ;
#56 = CARTESIAN_POINT ( 'NONE',  ( 2.480314960630017700, 6.110236220472468300, 3.546261922364159000E-014 ) ) ;
#57 = CARTESIAN_POINT ( 'NONE',  ( 1.011811023622114300, 3.478339926121399200, 2.023622047244159700 ) ) ;
#58 = PRODUCT_DEFINITION ( 'UNKNOWN', '', #207, #93 ) ;
#59 = DIMENSIONAL_EXPONENTS ( 1.000000000000000000, 0.0000000000000000000, 0.0000000000000000000, 0.0000000000000000000, 0.0000000000000000000, 0.0000000000000000000, 0.0000000000000000000 ) ;
#60 = LENGTH_MEASURE_WITH_UNIT ( LENGTH_MEASURE( 0.02539999999999999900 ), #143 );
#61 = CARTESIAN_POINT ( 'NONE',  ( 1.240157480315029500, 2.618110236220454900, 2.480314960629995000 ) ) ;
#62 = EDGE_LOOP ( 'NONE', ( #166 ) ) ;
#63 = DIRECTION ( 'NONE',  ( 5.245628054688031000E-017, 1.728885725179742100E-018, 1.000000000000000000 ) ) ;
#64 = CARTESIAN_POINT ( 'NONE',  ( 1.011811023622113200, 3.478339926121399600, -2.023622047244090000 ) ) ;
#65 = DIRECTION ( 'NONE',  ( 1.000000000000000000, 2.917410579004480800E-034, -5.245628054688031000E-017 ) ) ;
#66 = DIRECTION ( 'NONE',  ( 5.245628054687926900E-017, 0.0000000000000000000, 1.000000000000000000 ) ) ;
#67 = CARTESIAN_POINT ( 'NONE',  ( 2.480314960630017700, 4.086614173228358700, 3.512990335010813500E-014 ) ) ;
#68 = CARTESIAN_POINT ( 'NONE',  ( -1.240157480314911400, 4.797512533690661700, 2.480314960629995000 ) ) ;
#69 = EDGE_LOOP ( 'NONE', ( #281 ) ) ;
#70 =( GEOMETRIC_REPRESENTATION_CONTEXT ( 3 ) GLOBAL_UNCERTAINTY_ASSIGNED_CONTEXT ( ( #156 ) ) GLOBAL_UNIT_ASSIGNED_CONTEXT ( ( #201, #270, #76 ) ) REPRESENTATION_CONTEXT ( 'NONE', 'WORKASPACE' ) );
#71 = CC_DESIGN_SECURITY_CLASSIFICATION ( #42, ( #207 ) ) ;
#72 = CARTESIAN_POINT ( 'NONE',  ( -1.011811023621995700, 4.663750276279791300, -2.023622047244089600 ) ) ;
#73 = AXIS2_PLACEMENT_3D ( 'NONE', #33, #65, #99 ) ;
#74 = ORIENTED_EDGE ( 'NONE', *, *, #229, .F. ) ;
#75 = VERTEX_POINT ( 'NONE', #13 ) ;
#76 =( NAMED_UNIT ( * ) SI_UNIT ( $, .STERADIAN. ) SOLID_ANGLE_UNIT ( ) );
#77 = AXIS2_PLACEMENT_3D ( 'NONE', #48, #1, #268 ) ;
#78 = CIRCLE ( 'NONE', #282, 1.240157480314966600 ) ;
#79 = CARTESIAN_POINT ( 'NONE',  ( 1.011811023622113400, 3.478339926121400100, 3.520798724127484200E-014 ) ) ;
#80 = EDGE_LOOP ( 'NONE', ( #123 ) ) ;
#81 = CARTESIAN_POINT ( 'NONE',  ( 1.753847528139941500, 3.858267716535443500, 2.480314960629994100 ) ) ;
#82 = APPROVAL_ROLE ( '' ) ;
#83 = EDGE_LOOP ( 'NONE', ( #106 ) ) ;
#84 = APPROVAL ( #185, 'UNSPECIFIED' ) ;
#85 = ORIENTED_EDGE ( 'NONE', *, *, #43, .T. ) ;
#86 = ORGANIZATION ( 'UNSPECIFIED', 'UNSPECIFIED', '' ) ;
#87 = DIRECTION ( 'NONE',  ( 1.000000000000000000, 4.731228871674972400E-034, 5.245628054687966900E-017 ) ) ;
#88 = ORIENTED_EDGE ( 'NONE', *, *, #125, .T. ) ;
#89 = APPROVAL_STATUS ( 'not_yet_approved' ) ;
#90 = DIRECTION ( 'NONE',  ( 0.0000000000000000000, 1.000000000000000000, 1.728885725179644600E-018 ) ) ;
#91 = LOCAL_TIME ( 14, 37, 56.00000000000000000, #223 ) ;
#92 = CARTESIAN_POINT ( 'NONE',  ( -1.240157480314841600, 2.618110236220455400, -6.052763529535369000E-017 ) ) ;
#93 = DESIGN_CONTEXT ( 'detailed design', #200, 'design' ) ;
#94 = CARTESIAN_POINT ( 'NONE',  ( -1.240157480314911600, 2.618110236220455400, 3.568777526812376900E-014 ) ) ;
#95 = CALENDAR_DATE ( 2015, 4, 12 ) ;
#96 = CARTESIAN_POINT ( 'NONE',  ( 0.3009126631598119100, 6.338582677165383900, 3.560050418864115900E-014 ) ) ;
#97 = CARTESIAN_POINT ( 'NONE',  ( 2.480314960630017700, 6.338582677165384800, 2.480314960629995000 ) ) ;
#98 = FACE_OUTER_BOUND ( 'NONE', #152, .T. ) ;
#99 = DIRECTION ( 'NONE',  ( -5.245628054688031000E-017, -1.728885725179741700E-018, -1.000000000000000000 ) ) ;
#100 = MECHANICAL_CONTEXT ( 'NONE', #293, 'mechanical' ) ;
#101 = PRODUCT_RELATED_PRODUCT_CATEGORY ( 'detail', '', ( #187 ) ) ;
#102 = CARTESIAN_POINT ( 'NONE',  ( 2.480314960630017700, 5.098425196850400600, 1.762274985141445300E-014 ) ) ;
#103 = AXIS2_PLACEMENT_3D ( 'NONE', #146, #87, #50 ) ;
#104 = DIRECTION ( 'NONE',  ( -1.000000000000000000, 6.123233995736780800E-017, -5.245628054687966900E-017 ) ) ;
#105 = CALENDAR_DATE ( 2015, 4, 12 ) ;
#106 = ORIENTED_EDGE ( 'NONE', *, *, #43, .F. ) ;
#107 = CARTESIAN_POINT ( 'NONE',  ( -1.240157480314911600, 4.797512533690659900, 3.568400733060225000E-014 ) ) ;
#108 = CARTESIAN_POINT ( 'NONE',  ( 2.480314960630017700, 6.338582677165364400, 1.762489394197914200E-014 ) ) ;
#109 = LOCAL_TIME ( 14, 37, 56.00000000000000000, #291 ) ;
#110 = CARTESIAN_POINT ( 'NONE',  ( 5.098425196850475200, 5.098425196850400600, 5.272774049537085000E-014 ) ) ;
#111 = AXIS2_PLACEMENT_3D ( 'NONE', #216, #122, #165 ) ;
#112 = DIRECTION ( 'NONE',  ( -1.000000000000000000, -4.731228871674972400E-034, -5.245628054687966900E-017 ) ) ;
#113 = DIRECTION ( 'NONE',  ( 3.939573297233375300E-031, -1.000000000000000000, -1.728885725179311000E-018 ) ) ;
#114 = CC_DESIGN_DATE_AND_TIME_ASSIGNMENT ( #51, #132, ( #42 ) ) ;
#115 = APPROVAL ( #202, 'UNSPECIFIED' ) ;
#116 =( BOUNDED_SURFACE ( )  B_SPLINE_SURFACE ( 3, 3, ( 
 ( #134, #149, #127, #172 ),
 ( #240, #41, #72, #256 ),
 ( #28, #245, #64, #124 ),
 ( #67, #131, #79, #19 ),
 ( #38, #212, #57, #272 ),
 ( #230, #39, #55, #180 ),
 ( #56, #18, #35, #148 ) ),
 .UNSPECIFIED., .T., .F., .T. ) 
 B_SPLINE_SURFACE_WITH_KNOTS ( ( 4, 3, 4 ),
 ( 4, 4 ),
 ( 0.0000000000000000000, 0.5000000000000000000, 1.000000000000000000 ),
 ( 0.0000000000000000000, 1.000000000000000000 ),
 .UNSPECIFIED. ) 
 GEOMETRIC_REPRESENTATION_ITEM ( )  RATIONAL_B_SPLINE_SURFACE ( (
 ( 1.000000000000000000, 0.8047378541243649400, 0.8047378541243649400, 1.000000000000000000),
 ( 0.3333333333333333700, 0.2682459513747883500, 0.2682459513747883500, 0.3333333333333333700),
 ( 0.3333333333333333700, 0.2682459513747883500, 0.2682459513747883500, 0.3333333333333333700),
 ( 1.000000000000000000, 0.8047378541243649400, 0.8047378541243649400, 1.000000000000000000),
 ( 0.3333333333333333700, 0.2682459513747883500, 0.2682459513747883500, 0.3333333333333333700),
 ( 0.3333333333333333700, 0.2682459513747883500, 0.2682459513747883500, 0.3333333333333333700),
 ( 1.000000000000000000, 0.8047378541243649400, 0.8047378541243649400, 1.000000000000000000) ) ) 
 REPRESENTATION_ITEM ( '' )  SURFACE ( )  );
#117 = CARTESIAN_POINT ( 'NONE',  ( 0.0000000000000000000, 0.0000000000000000000, 0.0000000000000000000 ) ) ;
#118 = CARTESIAN_POINT ( 'NONE',  ( 2.480314960630017700, 3.858267716535443500, 3.507837734772060000E-014 ) ) ;
#119 = DATE_AND_TIME ( #294, #269 ) ;
#120 = CARTESIAN_POINT ( 'NONE',  ( -1.240157480314911400, 4.797512533690661700, -2.480314960629923500 ) ) ;
#121 = PERSON_AND_ORGANIZATION_ROLE ( 'creator' ) ;
#122 = DIRECTION ( 'NONE',  ( 0.0000000000000000000, 0.0000000000000000000, 1.000000000000000000 ) ) ;
#123 = ORIENTED_EDGE ( 'NONE', *, *, #229, .T. ) ;
#124 = CARTESIAN_POINT ( 'NONE',  ( 1.011811023622113400, 2.618110236220454900, -2.023622047244089600 ) ) ;
#125 = EDGE_CURVE ( 'NONE', #203, #203, #192, .T. ) ;
#126 = DIRECTION ( 'NONE',  ( 5.245628054688540700E-017, 0.0000000000000000000, 1.000000000000000000 ) ) ;
#127 = CARTESIAN_POINT ( 'NONE',  ( -1.011811023621995900, 4.663750276279791300, 3.564830397287715800E-014 ) ) ;
#128 = CARTESIAN_POINT ( 'NONE',  ( 1.224398659590746700E-013, 2.618110236220455400, 1.011811023622052100 ) ) ;
#129 = FACE_OUTER_BOUND ( 'NONE', #52, .T. ) ;
#130 = CARTESIAN_POINT ( 'NONE',  ( 1.240157480315029300, 3.344577668710530200, 2.480314960629995000 ) ) ;
#131 = CARTESIAN_POINT ( 'NONE',  ( 1.620085270729072900, 4.086614173228358700, 3.517502780005633100E-014 ) ) ;
#132 = DATE_TIME_ROLE ( 'classification_date' ) ;
#133 = APPLICATION_PROTOCOL_DEFINITION ( 'international standard', 'config_control_design', 1994, #293 ) ;
#134 = CARTESIAN_POINT ( 'NONE',  ( 2.480314960630017700, 6.110236220472468300, 3.546261922364159000E-014 ) ) ;
#135 = EDGE_LOOP ( 'NONE', ( #176 ) ) ;
#136 = ADVANCED_FACE ( 'NONE', ( #98, #5 ), #277, .T. ) ;
#137 = AXIS2_PLACEMENT_3D ( 'NONE', #15, #262, #147 ) ;
#138 = EDGE_LOOP ( 'NONE', ( #225 ) ) ;
#139 = LOCAL_TIME ( 14, 37, 56.00000000000000000, #235 ) ;
#140 = PERSON_AND_ORGANIZATION ( #178, #86 ) ;
#141 = ADVANCED_FACE ( 'NONE', ( #14, #257 ), #10, .T. ) ;
#142 = ADVANCED_FACE ( 'NONE', ( #186, #267 ), #280, .F. ) ;
#143 =( LENGTH_UNIT ( ) NAMED_UNIT ( * ) SI_UNIT ( $, .METRE. ) );
#144 = CARTESIAN_POINT ( 'NONE',  ( 1.223867901161591100E-013, 2.618110236220455400, 4.526413414359455500E-018 ) ) ;
#145 = APPROVAL_DATE_TIME ( #213, #115 ) ;
#146 = CARTESIAN_POINT ( 'NONE',  ( 3.789370078740282200, 5.098425196850400600, 2.075908544900900500E-016 ) ) ;
#147 = DIRECTION ( 'NONE',  ( 5.245628054688031000E-017, 1.728885725179741900E-018, 1.000000000000000000 ) ) ;
#148 = CARTESIAN_POINT ( 'NONE',  ( -1.011811023621995900, 2.618110236220455400, 3.565184065074127000E-014 ) ) ;
#149 = CARTESIAN_POINT ( 'NONE',  ( 0.4346749205706813000, 6.110236220472469200, 3.556992589148088100E-014 ) ) ;
#150 = CARTESIAN_POINT ( 'NONE',  ( 1.240157480315029000, 2.618110236220454500, 3.514557548699500200E-014 ) ) ;
#151 = DIRECTION ( 'NONE',  ( -1.000000000000000000, 0.0000000000000000000, -5.245628054687966900E-017 ) ) ;
#152 = EDGE_LOOP ( 'NONE', ( #25 ) ) ;
#153 = PERSON_AND_ORGANIZATION_ROLE ( 'design_owner' ) ;
#154 = CARTESIAN_POINT ( 'NONE',  ( 6.505404870971408400E-017, 2.144090564691422600E-018, 1.240157480314966600 ) ) ;
#155 = SECURITY_CLASSIFICATION_LEVEL ( 'unclassified' ) ;
#156 = UNCERTAINTY_MEASURE_WITH_UNIT (LENGTH_MEASURE( 1.000000000000000100E-005 ), #201, 'distance_accuracy_value', 'NONE');
#157 = FACE_BOUND ( 'NONE', #138, .T. ) ;
#158 = DIRECTION ( 'NONE',  ( -1.000000000000000000, -4.731228871674972400E-034, -5.245628054687966900E-017 ) ) ;
#159 = FACE_OUTER_BOUND ( 'NONE', #285, .T. ) ;
#160 = VERTEX_POINT ( 'NONE', #154 ) ;
#161 = AXIS2_PLACEMENT_3D ( 'NONE', #204, #11, #126 ) ;
#162 = VERTEX_POINT ( 'NONE', #92 ) ;
#163 = ADVANCED_FACE ( 'NONE', ( #167, #254 ), #34, .T. ) ;
#164 = CARTESIAN_POINT ( 'NONE',  ( 2.480314960630017700, 5.098425196850400600, 1.762274985141445300E-014 ) ) ;
#165 = DIRECTION ( 'NONE',  ( 1.000000000000000000, 0.0000000000000000000, 0.0000000000000000000 ) ) ;
#166 = ORIENTED_EDGE ( 'NONE', *, *, #197, .T. ) ;
#167 = FACE_OUTER_BOUND ( 'NONE', #242, .T. ) ;
#168 = LOCAL_TIME ( 14, 37, 56.00000000000000000, #214 ) ;
#169 = CIRCLE ( 'NONE', #233, 1.240157480314964000 ) ;
#170 = EDGE_LOOP ( 'NONE', ( #74 ) ) ;
#171 = CIRCLE ( 'NONE', #40, 1.011811023622052100 ) ;
#172 = CARTESIAN_POINT ( 'NONE',  ( -1.011811023621995900, 2.618110236220455400, 3.565184065074127000E-014 ) ) ;
#173 = EDGE_CURVE ( 'NONE', #219, #219, #78, .T. ) ;
#174 = APPROVAL_PERSON_ORGANIZATION ( #26, #84, #243 ) ;
#175 = CARTESIAN_POINT ( 'NONE',  ( 3.789370078740282200, 5.098425196850400600, 2.075908544900900500E-016 ) ) ;
#176 = ORIENTED_EDGE ( 'NONE', *, *, #173, .T. ) ;
#177 = CARTESIAN_POINT ( 'NONE',  ( 5.307584291554450700E-017, 1.749305635319668600E-018, 1.011811023622052100 ) ) ;
#178 = PERSON ( 'UNSPECIFIED', 'UNSPECIFIED', 'UNSPECIFIED', ('UNSPECIFIED'), ('UNSPECIFIED'), ('UNSPECIFIED') ) ;
#179 = CARTESIAN_POINT ( 'NONE',  ( -1.240157480314911600, 2.618110236220454900, -2.480314960629923500 ) ) ;
#180 = CARTESIAN_POINT ( 'NONE',  ( -1.011811023621995900, 2.618110236220454900, 2.023622047244161100 ) ) ;
#181 = CARTESIAN_POINT ( 'NONE',  ( 1.223867901161591100E-013, 1.309055118110262500, 1.748609036615848900E-014 ) ) ;
#182 = CC_DESIGN_APPROVAL ( #84, ( #42 ) ) ;
#183 = CYLINDRICAL_SURFACE ( 'NONE', #103, 1.011811023622052100 ) ;
#184 = ORIENTED_EDGE ( 'NONE', *, *, #125, .F. ) ;
#185 = APPROVAL_STATUS ( 'not_yet_approved' ) ;
#186 = FACE_OUTER_BOUND ( 'NONE', #83, .T. ) ;
#187 = PRODUCT ( '581243020', '581243020', '', ( #100 ) ) ;
#188 = APPLICATION_PROTOCOL_DEFINITION ( 'international standard', 'config_control_design', 1994, #200 ) ;
#189 = CARTESIAN_POINT ( 'NONE',  ( 0.3009126631598118600, 6.338582677165384800, -2.480314960629924400 ) ) ;
#190 = DIRECTION ( 'NONE',  ( 0.0000000000000000000, 0.0000000000000000000, -1.000000000000000000 ) ) ;
#191 = ADVANCED_FACE ( 'NONE', ( #246, #271 ), #206, .T. ) ;
#192 = CIRCLE ( 'NONE', #208, 1.011811023622052100 ) ;
#193 = CARTESIAN_POINT ( 'NONE',  ( 5.098425196850475200, 5.098425196850400600, -1.240157480314914000 ) ) ;
#194 = CARTESIAN_POINT ( 'NONE',  ( 2.480314960630017700, 6.338582677165383900, 3.548618085030055000E-014 ) ) ;
#195 = CALENDAR_DATE ( 2015, 4, 12 ) ;
#196 = EDGE_LOOP ( 'NONE', ( #286 ) ) ;
#197 = EDGE_CURVE ( 'NONE', #162, #162, #236, .T. ) ;
#198 = DATE_AND_TIME ( #195, #91 ) ;
#199 = APPROVAL ( #89, 'UNSPECIFIED' ) ;
#200 = APPLICATION_CONTEXT ( 'configuration controlled 3d designs of mechanical parts and assemblies' ) ;
#201 =( CONVERSION_BASED_UNIT ( 'INCH', #60 ) LENGTH_UNIT ( ) NAMED_UNIT ( #59 ) );
#202 = APPROVAL_STATUS ( 'not_yet_approved' ) ;
#203 = VERTEX_POINT ( 'NONE', #7 ) ;
#204 = CARTESIAN_POINT ( 'NONE',  ( 1.223867901161591100E-013, 1.309055118110262500, 1.748609036615848900E-014 ) ) ;
#205 = PERSON_AND_ORGANIZATION ( #178, #86 ) ;
#206 = CYLINDRICAL_SURFACE ( 'NONE', #283, 1.240157480314966600 ) ;
#207 = PRODUCT_DEFINITION_FORMATION_WITH_SPECIFIED_SOURCE ( 'ANY', '', #187, .NOT_KNOWN. ) ;
#208 = AXIS2_PLACEMENT_3D ( 'NONE', #164, #289, #47 ) ;
#209 = CARTESIAN_POINT ( 'NONE',  ( 0.3009126631598119100, 6.338582677165383900, 3.560050418864115900E-014 ) ) ;
#210 = APPROVAL_PERSON_ORGANIZATION ( #20, #115, #260 ) ;
#211 = CLOSED_SHELL ( 'NONE', ( #163, #136, #191, #224, #141, #142, #45, #253 ) ) ;
#212 = CARTESIAN_POINT ( 'NONE',  ( 1.620085270729073400, 4.086614173228356100, 2.023622047244159700 ) ) ;
#213 = DATE_AND_TIME ( #105, #168 ) ;
#214 = COORDINATED_UNIVERSAL_TIME_OFFSET ( 5, 0, .BEHIND. ) ;
#215 = EDGE_CURVE ( 'NONE', #75, #75, #171, .T. ) ;
#216 = CARTESIAN_POINT ( 'NONE',  ( 0.0000000000000000000, 0.0000000000000000000, 0.0000000000000000000 ) ) ;
#217 = CARTESIAN_POINT ( 'NONE',  ( 2.480314960630017700, 6.338582677165384800, -2.480314960629924400 ) ) ;
#218 = CARTESIAN_POINT ( 'NONE',  ( 1.753847528139941900, 3.858267716535443500, 3.511648512716747200E-014 ) ) ;
#219 = VERTEX_POINT ( 'NONE', #193 ) ;
#220 = DIRECTION ( 'NONE',  ( -3.939573297233375300E-031, 1.000000000000000000, 1.728885725179311000E-018 ) ) ;
#221 = ORIENTED_EDGE ( 'NONE', *, *, #276, .F. ) ;
#222 = CC_DESIGN_PERSON_AND_ORGANIZATION_ASSIGNMENT ( #227, #153, ( #187 ) ) ;
#223 = COORDINATED_UNIVERSAL_TIME_OFFSET ( 5, 0, .BEHIND. ) ;
#224 = ADVANCED_FACE ( 'NONE', ( #300, #157 ), #298, .T. ) ;
#225 = ORIENTED_EDGE ( 'NONE', *, *, #266, .T. ) ;
#226 = ORIENTED_EDGE ( 'NONE', *, *, #276, .T. ) ;
#227 = PERSON_AND_ORGANIZATION ( #178, #86 ) ;
#228 = APPROVAL_DATE_TIME ( #119, #199 ) ;
#229 = EDGE_CURVE ( 'NONE', #160, #160, #238, .T. ) ;
#230 = CARTESIAN_POINT ( 'NONE',  ( 2.480314960630017700, 6.110236220472467400, 2.023622047244160600 ) ) ;
#231 = CARTESIAN_POINT ( 'NONE',  ( 1.753847528139941000, 3.858267716535444400, -2.480314960629924800 ) ) ;
#232 = AXIS2_PLACEMENT_3D ( 'NONE', #181, #220, #66 ) ;
#233 = AXIS2_PLACEMENT_3D ( 'NONE', #102, #104, #90 ) ;
#234 = DIRECTION ( 'NONE',  ( 0.0000000000000000000, 0.0000000000000000000, -1.000000000000000000 ) ) ;
#235 = COORDINATED_UNIVERSAL_TIME_OFFSET ( 5, 0, .BEHIND. ) ;
#236 = CIRCLE ( 'NONE', #284, 1.240157480314964000 ) ;
#237 = PERSON_AND_ORGANIZATION_ROLE ( 'design_supplier' ) ;
#238 = CIRCLE ( 'NONE', #137, 1.240157480314966600 ) ;
#239 = DIRECTION ( 'NONE',  ( -3.939573297233375300E-031, 1.000000000000000000, 1.728885725179311000E-018 ) ) ;
#240 = CARTESIAN_POINT ( 'NONE',  ( 2.480314960630017700, 6.110236220472467400, -2.023622047244089600 ) ) ;
#241 = CARTESIAN_POINT ( 'NONE',  ( 1.240157480315027300, 3.344577668710531100, -2.480314960629924400 ) ) ;
#242 = EDGE_LOOP ( 'NONE', ( #226 ) ) ;
#243 = APPROVAL_ROLE ( '' ) ;
#244 = PERSON_AND_ORGANIZATION ( #178, #86 ) ;
#245 = CARTESIAN_POINT ( 'NONE',  ( 1.620085270729072300, 4.086614173228359600, -2.023622047244090000 ) ) ;
#246 = FACE_OUTER_BOUND ( 'NONE', #135, .T. ) ;
#247 = DIRECTION ( 'NONE',  ( 1.000000000000000000, 4.731228871674972400E-034, 5.245628054687966900E-017 ) ) ;
#248 = DATE_TIME_ROLE ( 'creation_date' ) ;
#249 = DIRECTION ( 'NONE',  ( 5.245628054687926900E-017, 0.0000000000000000000, 1.000000000000000000 ) ) ;
#250 = FACE_OUTER_BOUND ( 'NONE', #196, .T. ) ;
#251 = VERTEX_POINT ( 'NONE', #108 ) ;
#252 = APPROVAL_PERSON_ORGANIZATION ( #205, #199, #82 ) ;
#253 = ADVANCED_FACE ( 'NONE', ( #261, #129 ), #116, .F. ) ;
#254 = FACE_OUTER_BOUND ( 'NONE', #62, .T. ) ;
#255 = EDGE_LOOP ( 'NONE', ( #24 ) ) ;
#256 = CARTESIAN_POINT ( 'NONE',  ( -1.011811023621995900, 2.618110236220454900, -2.023622047244089600 ) ) ;
#257 = FACE_OUTER_BOUND ( 'NONE', #255, .T. ) ;
#258 = AXIS2_PLACEMENT_3D ( 'NONE', #288, #113, #249 ) ;
#259 = PERSON_AND_ORGANIZATION ( #178, #86 ) ;
#260 = APPROVAL_ROLE ( '' ) ;
#261 = FACE_OUTER_BOUND ( 'NONE', #37, .T. ) ;
#262 = DIRECTION ( 'NONE',  ( -3.939573297233375300E-031, 1.000000000000000000, 1.728885725179311000E-018 ) ) ;
#263 = CARTESIAN_POINT ( 'NONE',  ( 5.098425196850475200, 5.098425196850400600, 5.272774049537085000E-014 ) ) ;
#264 = COORDINATED_UNIVERSAL_TIME_OFFSET ( 5, 0, .BEHIND. ) ;
#265 = DIRECTION ( 'NONE',  ( 1.224646799147348800E-016, 1.000000000000000000, 1.728885725178961300E-018 ) ) ;
#266 = EDGE_CURVE ( 'NONE', #21, #21, #287, .T. ) ;
#267 = FACE_OUTER_BOUND ( 'NONE', #17, .T. ) ;
#268 = DIRECTION ( 'NONE',  ( -5.245628054688031000E-017, -1.728885725179741700E-018, -1.000000000000000000 ) ) ;
#269 = LOCAL_TIME ( 14, 37, 56.00000000000000000, #264 ) ;
#270 =( NAMED_UNIT ( * ) PLANE_ANGLE_UNIT ( ) SI_UNIT ( $, .RADIAN. ) );
#271 = FACE_OUTER_BOUND ( 'NONE', #3, .T. ) ;
#272 = CARTESIAN_POINT ( 'NONE',  ( 1.011811023622114700, 2.618110236220454900, 2.023622047244160200 ) ) ;
#273 = CARTESIAN_POINT ( 'NONE',  ( 1.240157480315028800, 3.344577668710530200, 3.514431950782116200E-014 ) ) ;
#274 = CARTESIAN_POINT ( 'NONE',  ( 0.3009126631598118600, 6.338582677165384800, 2.480314960629995000 ) ) ;
#275 = PERSON_AND_ORGANIZATION_ROLE ( 'creator' ) ;
#276 = EDGE_CURVE ( 'NONE', #251, #251, #169, .T. ) ;
#277 = CYLINDRICAL_SURFACE ( 'NONE', #161, 1.240157480314966600 ) ;
#278 = CARTESIAN_POINT ( 'NONE',  ( -1.240157480314911600, 2.618110236220455400, 3.568777526812376900E-014 ) ) ;
#279 = PRODUCT_DEFINITION_SHAPE ( 'NONE', 'NONE',  #58 ) ;
#280 = CYLINDRICAL_SURFACE ( 'NONE', #232, 1.011811023622052100 ) ;
#281 = ORIENTED_EDGE ( 'NONE', *, *, #215, .T. ) ;
#282 = AXIS2_PLACEMENT_3D ( 'NONE', #110, #158, #53 ) ;
#283 = AXIS2_PLACEMENT_3D ( 'NONE', #175, #247, #190 ) ;
#284 = AXIS2_PLACEMENT_3D ( 'NONE', #144, #265, #151 ) ;
#285 = EDGE_LOOP ( 'NONE', ( #184 ) ) ;
#286 = ORIENTED_EDGE ( 'NONE', *, *, #215, .F. ) ;
#287 = CIRCLE ( 'NONE', #30, 1.011811023622052100 ) ;
#288 = CARTESIAN_POINT ( 'NONE',  ( 1.223867901161591100E-013, 2.618110236220455400, 4.526413414359455500E-018 ) ) ;
#289 = DIRECTION ( 'NONE',  ( 1.000000000000000000, 4.731228871674972400E-034, 5.245628054687966900E-017 ) ) ;
#290 = PERSON_AND_ORGANIZATION_ROLE ( 'classification_officer' ) ;
#291 = COORDINATED_UNIVERSAL_TIME_OFFSET ( 5, 0, .BEHIND. ) ;
#292 = CC_DESIGN_PERSON_AND_ORGANIZATION_ASSIGNMENT ( #259, #121, ( #58 ) ) ;
#293 = APPLICATION_CONTEXT ( 'configuration controlled 3d designs of mechanical parts and assemblies' ) ;
#294 = CALENDAR_DATE ( 2015, 4, 12 ) ;
#295 = SHAPE_DEFINITION_REPRESENTATION ( #279, #54 ) ;
#296 = CARTESIAN_POINT ( 'NONE',  ( 1.240157480315027700, 2.618110236220454900, -2.480314960629924400 ) ) ;
#297 = CC_DESIGN_PERSON_AND_ORGANIZATION_ASSIGNMENT ( #140, #290, ( #42 ) ) ;
#298 = PLANE ( 'NONE',  #77 ) ;
#299 = CC_DESIGN_PERSON_AND_ORGANIZATION_ASSIGNMENT ( #244, #237, ( #207 ) ) ;
#300 = FACE_OUTER_BOUND ( 'NONE', #170, .T. ) ;
ENDSEC;
END-ISO-10303-21;
