ISO-10303-21;
HEADER;
FILE_DESCRIPTION (( 'STEP AP203' ),
    '1' );
FILE_NAME ('581244060.STEP',
    '2017-07-27T18:55:13',
    ( '' ),
    ( '' ),
    'SwSTEP 2.0',
    'SolidWorks 2017',
    '' );
FILE_SCHEMA (( 'CONFIG_CONTROL_DESIGN' ));
ENDSEC;

DATA;
#1 = APPROVAL_STATUS ( 'not_yet_approved' ) ;
#2 = CARTESIAN_POINT ( 'NONE',  ( 7.996896362442887700, 1.039418485280152200, 1.825636632696259000 ) ) ;
#3 = ORIENTED_EDGE ( 'NONE', *, *, #239, .T. ) ;
#4 = AXIS2_PLACEMENT_3D ( 'NONE', #233, #254, #151 ) ;
#5 = DATE_AND_TIME ( #14, #269 ) ;
#6 = CC_DESIGN_PERSON_AND_ORGANIZATION_ASSIGNMENT ( #160, #280, ( #170 ) ) ;
#7 = ORIENTED_EDGE ( 'NONE', *, *, #72, .F. ) ;
#8 = PERSON_AND_ORGANIZATION ( #17, #201 ) ;
#9 = CARTESIAN_POINT ( 'NONE',  ( 12.33885806083836700, -2.536119203389549400, -7.272865167332711900E-032 ) ) ;
#10 = SHAPE_DEFINITION_REPRESENTATION ( #250, #311 ) ;
#11 = EDGE_LOOP ( 'NONE', ( #177, #209 ) ) ;
#12 = PRODUCT_RELATED_PRODUCT_CATEGORY ( 'detail', '', ( #185 ) ) ;
#13 = DIRECTION ( 'NONE',  ( 0.0000000000000000000, 0.0000000000000000000, -1.000000000000000000 ) ) ;
#14 = CALENDAR_DATE ( 2017, 27, 7 ) ;
#15 = CARTESIAN_POINT ( 'NONE',  ( 7.806489528277536400, -0.05313159567246825800, -2.818384851642248300 ) ) ;
#16 = ADVANCED_FACE ( 'NONE', ( #293 ), #128, .F. ) ;
#17 = PERSON ( 'UNSPECIFIED', 'UNSPECIFIED', 'UNSPECIFIED', ('UNSPECIFIED'), ('UNSPECIFIED'), ('UNSPECIFIED') ) ;
#18 =( BOUNDED_CURVE ( )  B_SPLINE_CURVE ( 3, ( #43, #132, #42, #48 ),
 .UNSPECIFIED., .F., .T. ) 
 B_SPLINE_CURVE_WITH_KNOTS ( ( 4, 4 ),
 ( 1.570796326794891500, 4.712388980384691500 ),
 .UNSPECIFIED. ) 
 CURVE ( )  GEOMETRIC_REPRESENTATION_ITEM ( )  RATIONAL_B_SPLINE_CURVE ( ( 1.000000000000000000, 0.3333333333333309800, 0.3333333333333309800, 1.000000000000000000 ) ) 
 REPRESENTATION_ITEM ( '' )  );
#19 = DIMENSIONAL_EXPONENTS ( 1.000000000000000000, 0.0000000000000000000, 0.0000000000000000000, 0.0000000000000000000, 0.0000000000000000000, 0.0000000000000000000, 0.0000000000000000000 ) ;
#20 = FACE_OUTER_BOUND ( 'NONE', #229, .T. ) ;
#21 = EDGE_LOOP ( 'NONE', ( #69, #235 ) ) ;
#22 = DIRECTION ( 'NONE',  ( 0.7071067811865480200, 0.7071067811865470200, 0.0000000000000000000 ) ) ;
#23 =( NAMED_UNIT ( * ) SI_UNIT ( $, .STERADIAN. ) SOLID_ANGLE_UNIT ( ) );
#24 = UNCERTAINTY_MEASURE_WITH_UNIT (LENGTH_MEASURE( 1.000000000000000100E-005 ), #175, 'distance_accuracy_value', 'NONE');
#25 = VERTEX_POINT ( 'NONE', #9 ) ;
#26 = CYLINDRICAL_SURFACE ( 'NONE', #174, 2.574803149606299500 ) ;
#27 = ORIENTED_EDGE ( 'NONE', *, *, #211, .T. ) ;
#28 = PERSON_AND_ORGANIZATION ( #17, #201 ) ;
#29 = CARTESIAN_POINT ( 'NONE',  ( 0.0000000000000000000, 1.574803149606299300, -3.857027886054732100E-016 ) ) ;
#30 = CARTESIAN_POINT ( 'NONE',  ( 7.017197002136640500, 1.812992814084907200, 3.184344076117156900 ) ) ;
#31 = PRODUCT_DEFINITION_FORMATION_WITH_SPECIFIED_SOURCE ( 'ANY', '', #185, .NOT_KNOWN. ) ;
#32 = DIRECTION ( 'NONE',  ( 0.0000000000000000000, 0.0000000000000000000, -1.000000000000000000 ) ) ;
#33 = EDGE_CURVE ( 'NONE', #141, #272, #199, .T. ) ;
#34 = CIRCLE ( 'NONE', #263, 3.149606299212598600 ) ;
#35 = PERSON_AND_ORGANIZATION ( #17, #201 ) ;
#36 =( GEOMETRIC_REPRESENTATION_CONTEXT ( 3 ) GLOBAL_UNCERTAINTY_ASSIGNED_CONTEXT ( ( #24 ) ) GLOBAL_UNIT_ASSIGNED_CONTEXT ( ( #175, #145, #23 ) ) REPRESENTATION_CONTEXT ( 'NONE', 'WORKASPACE' ) );
#37 = CARTESIAN_POINT ( 'NONE',  ( 7.506263850784204500, 2.304438994318453600, 1.370171686760130100 ) ) ;
#38 = DIRECTION ( 'NONE',  ( 0.0000000000000000000, 1.000000000000000000, 0.0000000000000000000 ) ) ;
#39 = EDGE_CURVE ( 'NONE', #216, #216, #296, .T. ) ;
#40 = VERTEX_POINT ( 'NONE', #287 ) ;
#41 = CARTESIAN_POINT ( 'NONE',  ( 7.806489528277535500, 2.818885619961406100, -1.676050992978757700 ) ) ;
#42 = CARTESIAN_POINT ( 'NONE',  ( 4.028380552818834600, -5.149606299212631000, -2.574803149606307500 ) ) ;
#43 = CARTESIAN_POINT ( 'NONE',  ( 6.161417322834637400, 1.337413600297703900E-014, 2.574803149606300000 ) ) ;
#44 = ORIENTED_EDGE ( 'NONE', *, *, #121, .F. ) ;
#45 = DIRECTION ( 'NONE',  ( 0.7071067811865477900, 0.7071067811865471300, 0.0000000000000000000 ) ) ;
#46 = APPROVAL_ROLE ( '' ) ;
#47 = AXIS2_PLACEMENT_3D ( 'NONE', #278, #150, #45 ) ;
#48 = CARTESIAN_POINT ( 'NONE',  ( 6.161417322834633800, 4.362848735758595200E-015, -2.574803149606300000 ) ) ;
#49 = CIRCLE ( 'NONE', #212, 2.574803149606299500 ) ;
#50 = EDGE_LOOP ( 'NONE', ( #44, #7 ) ) ;
#51 = DATE_AND_TIME ( #241, #183 ) ;
#52 = CARTESIAN_POINT ( 'NONE',  ( 7.506263850784205400, -0.04343507946223352400, 2.304029616217539100 ) ) ;
#53 = CARTESIAN_POINT ( 'NONE',  ( 7.806489528277536400, 2.818885619961406100, 1.801312270822373800E-015 ) ) ;
#54 = APPROVAL ( #228, 'UNSPECIFIED' ) ;
#55 = CC_DESIGN_DATE_AND_TIME_ASSIGNMENT ( #51, #114, ( #58 ) ) ;
#56 = APPLICATION_PROTOCOL_DEFINITION ( 'international standard', 'config_control_design', 1994, #86 ) ;
#57 = CYLINDRICAL_SURFACE ( 'NONE', #176, 3.149606299212598600 ) ;
#58 = PRODUCT_DEFINITION ( 'UNKNOWN', '', #31, #204 ) ;
#59 = CARTESIAN_POINT ( 'NONE',  ( 8.406651622049624400, -0.04163305376365179100, -2.208440506443996500 ) ) ;
#60 = CALENDAR_DATE ( 2017, 27, 7 ) ;
#61 = DIRECTION ( 'NONE',  ( 0.7071067811865470200, -0.7071067811865480200, -2.360776680514389900E-032 ) ) ;
#62 = CC_DESIGN_PERSON_AND_ORGANIZATION_ASSIGNMENT ( #253, #112, ( #58 ) ) ;
#63 = ADVANCED_FACE ( 'NONE', ( #171, #240 ), #106, .T. ) ;
#64 = CARTESIAN_POINT ( 'NONE',  ( 3.552198032295442500, -6.299212598425207900, 3.149606299212598600 ) ) ;
#65 = CARTESIAN_POINT ( 'NONE',  ( 6.861017210664024400, 2.574803149606306600, 1.530924612571384700 ) ) ;
#66 = AXIS2_PLACEMENT_3D ( 'NONE', #246, #96, #115 ) ;
#67 = CARTESIAN_POINT ( 'NONE',  ( 7.806489528277535500, 2.818885619961403900, 1.676050992978761500 ) ) ;
#68 = AXIS2_PLACEMENT_3D ( 'NONE', #109, #274, #99 ) ;
#69 = ORIENTED_EDGE ( 'NONE', *, *, #211, .F. ) ;
#70 = AXIS2_PLACEMENT_3D ( 'NONE', #191, #292, #22 ) ;
#71 = APPROVAL_PERSON_ORGANIZATION ( #139, #54, #46 ) ;
#72 = EDGE_CURVE ( 'NONE', #40, #252, #172, .T. ) ;
#73 = CARTESIAN_POINT ( 'NONE',  ( 7.506263850784204500, 1.326493199559865900, 2.329855214655188500 ) ) ;
#74 = ORIENTED_EDGE ( 'NONE', *, *, #202, .T. ) ;
#75 = APPROVAL_PERSON_ORGANIZATION ( #207, #156, #286 ) ;
#76 = APPLICATION_PROTOCOL_DEFINITION ( 'international standard', 'config_control_design', 1994, #288 ) ;
#77 = CARTESIAN_POINT ( 'NONE',  ( 6.161417322834637400, 1.337413600297703900E-014, 2.574803149606300000 ) ) ;
#78 = ORIENTED_EDGE ( 'NONE', *, *, #239, .F. ) ;
#79 = CARTESIAN_POINT ( 'NONE',  ( 7.506263850784205400, 2.304438994318450500, -4.652678614209448500E-015 ) ) ;
#80 = DIRECTION ( 'NONE',  ( 0.7071067811865470200, -0.7071067811865480200, -2.360776680514389900E-032 ) ) ;
#81 = CARTESIAN_POINT ( 'NONE',  ( 6.161417322834632100, -0.05936516445797664800, 3.149046779152154600 ) ) ;
#82 = ORIENTED_EDGE ( 'NONE', *, *, #226, .T. ) ;
#83 = ADVANCED_FACE ( 'NONE', ( #224, #298 ), #57, .T. ) ;
#84 = CARTESIAN_POINT ( 'NONE',  ( 6.861017210664024400, 1.482121625514412700, -2.603201282225773700 ) ) ;
#85 = APPROVAL ( #1, 'UNSPECIFIED' ) ;
#86 = APPLICATION_CONTEXT ( 'configuration controlled 3d designs of mechanical parts and assemblies' ) ;
#87 = EDGE_LOOP ( 'NONE', ( #27, #267 ) ) ;
#88 = DIRECTION ( 'NONE',  ( 1.000000000000000000, 0.0000000000000000000, 0.0000000000000000000 ) ) ;
#89 = FACE_BOUND ( 'NONE', #281, .T. ) ;
#90 = CARTESIAN_POINT ( 'NONE',  ( 7.506263850784204500, 1.326493199559856600, -2.329855214655193400 ) ) ;
#91 = AXIS2_PLACEMENT_3D ( 'NONE', #117, #100, #32 ) ;
#92 = CC_DESIGN_PERSON_AND_ORGANIZATION_ASSIGNMENT ( #8, #295, ( #185 ) ) ;
#93 = VERTEX_POINT ( 'NONE', #307 ) ;
#94 = CIRCLE ( 'NONE', #91, 2.574803149606300000 ) ;
#95 = FACE_OUTER_BOUND ( 'NONE', #21, .T. ) ;
#96 = DIRECTION ( 'NONE',  ( 0.0000000000000000000, 0.0000000000000000000, 1.000000000000000000 ) ) ;
#97 = PERSON_AND_ORGANIZATION ( #17, #201 ) ;
#98 = CARTESIAN_POINT ( 'NONE',  ( 8.406651622049626100, 2.208832900349933400, 1.313326283883187000 ) ) ;
#99 = DIRECTION ( 'NONE',  ( 0.7071067811865479100, 0.7071067811865469100, 0.0000000000000000000 ) ) ;
#100 = DIRECTION ( 'NONE',  ( 1.000000000000000000, 0.0000000000000000000, 0.0000000000000000000 ) ) ;
#101 = CARTESIAN_POINT ( 'NONE',  ( 6.161417322834633800, 5.732043472403704300E-015, -3.149606299212598200 ) ) ;
#102 = CARTESIAN_POINT ( 'NONE',  ( 8.339807308182953300, -2.178389985348322600, 0.0000000000000000000 ) ) ;
#103 = CC_DESIGN_SECURITY_CLASSIFICATION ( #170, ( #31 ) ) ;
#104 = CARTESIAN_POINT ( 'NONE',  ( 3.552198032295445200, -6.299212598425202500, -3.149606299212607900 ) ) ;
#105 = AXIS2_PLACEMENT_3D ( 'NONE', #198, #312, #135 ) ;
#106 = CYLINDRICAL_SURFACE ( 'NONE', #147, 3.149606299212598600 ) ;
#107 = ORIENTED_EDGE ( 'NONE', *, *, #308, .F. ) ;
#108 = COORDINATED_UNIVERSAL_TIME_OFFSET ( 5, 0, .BEHIND. ) ;
#109 = CARTESIAN_POINT ( 'NONE',  ( 11.63175127965185000, -3.243225984576094700, -3.857027886054732100E-016 ) ) ;
#110 = CARTESIAN_POINT ( 'NONE',  ( 7.806489528277535500, 1.622621650837742200, 2.849975797743356400 ) ) ;
#111 = CARTESIAN_POINT ( 'NONE',  ( 8.406651622049626100, 1.271459920831981000, -2.233194657732427300 ) ) ;
#112 = PERSON_AND_ORGANIZATION_ROLE ( 'creator' ) ;
#113 = CARTESIAN_POINT ( 'NONE',  ( 6.161417322834633800, -0.04853102194439260600, -2.574345741956887100 ) ) ;
#114 = DATE_TIME_ROLE ( 'creation_date' ) ;
#115 = DIRECTION ( 'NONE',  ( 1.000000000000000000, 0.0000000000000000000, 0.0000000000000000000 ) ) ;
#116 = FACE_OUTER_BOUND ( 'NONE', #215, .T. ) ;
#117 = CARTESIAN_POINT ( 'NONE',  ( 0.0000000000000000000, 0.0000000000000000000, 0.0000000000000000000 ) ) ;
#118 = CARTESIAN_POINT ( 'NONE',  ( 8.406651622049626100, 2.208832900349935200, -1.313326283883184100 ) ) ;
#119 =( LENGTH_UNIT ( ) NAMED_UNIT ( * ) SI_UNIT ( $, .METRE. ) );
#120 = DIRECTION ( 'NONE',  ( 0.0000000000000000000, 0.0000000000000000000, -1.000000000000000000 ) ) ;
#121 = EDGE_CURVE ( 'NONE', #252, #40, #34, .T. ) ;
#122 = CARTESIAN_POINT ( 'NONE',  ( 7.506263850784205400, -0.04343507946224284300, -2.304029616217539100 ) ) ;
#123 = CLOSED_SHELL ( 'NONE', ( #83, #218, #63, #222, #208, #180, #219, #16 ) ) ;
#124 = COORDINATED_UNIVERSAL_TIME_OFFSET ( 5, 0, .BEHIND. ) ;
#125 = CC_DESIGN_APPROVAL ( #156, ( #170 ) ) ;
#126 = CYLINDRICAL_SURFACE ( 'NONE', #4, 2.574803149606300000 ) ;
#127 = PERSON_AND_ORGANIZATION_ROLE ( 'creator' ) ;
#128 =( BOUNDED_SURFACE ( )  B_SPLINE_SURFACE ( 3, 3, ( 
 ( #165, #164, #186, #230, #227, #2, #302 ),
 ( #122, #90, #262, #79, #37, #73, #52 ),
 ( #203, #84, #192, #260, #65, #184, #167 ),
 ( #113, #213, #169, #237, #276, #138, #136 ) ),
 .UNSPECIFIED., .F., .F., .F. ) 
 B_SPLINE_SURFACE_WITH_KNOTS ( ( 4, 4 ),
 ( 4, 3, 4 ),
 ( 0.0000000000000000000, 1.000000000000000000 ),
 ( 0.0000000000000000000, 0.5000000000000000000, 1.000000000000000000 ),
 .UNSPECIFIED. ) 
 GEOMETRIC_REPRESENTATION_ITEM ( )  RATIONAL_B_SPLINE_SURFACE ( (
 ( 1.000000000000000000, 0.8002741005225383300, 0.8002741005225383300, 1.000000000000000000, 0.8002741005225383300, 0.8002741005225383300, 1.000000000000000000),
 ( 0.9482053969659238700, 0.7588242211675211300, 0.7588242211675211300, 0.9482053969659238700, 0.7588242211675211300, 0.7588242211675211300, 0.9482053969659238700),
 ( 0.9482053969659238700, 0.7588242211675211300, 0.7588242211675211300, 0.9482053969659238700, 0.7588242211675211300, 0.7588242211675211300, 0.9482053969659238700),
 ( 1.000000000000000000, 0.8002741005225383300, 0.8002741005225383300, 1.000000000000000000, 0.8002741005225383300, 0.8002741005225383300, 1.000000000000000000) ) ) 
 REPRESENTATION_ITEM ( '' )  SURFACE ( )  );
#129 = EDGE_CURVE ( 'NONE', #141, #272, #18, .T. ) ;
#130 = DIRECTION ( 'NONE',  ( 0.7071067811865477900, 0.7071067811865471300, 0.0000000000000000000 ) ) ;
#131 = DATE_AND_TIME ( #60, #257 ) ;
#132 = CARTESIAN_POINT ( 'NONE',  ( 4.028380552818838100, -5.149606299212623000, 2.574803149606326200 ) ) ;
#133 = CARTESIAN_POINT ( 'NONE',  ( 6.161417322834632100, 3.149606299212599900, -1.872690657579679800 ) ) ;
#134 = LOCAL_TIME ( 14, 55, 13.00000000000000000, #261 ) ;
#135 = DIRECTION ( 'NONE',  ( 0.7071067811865481300, 0.7071067811865470200, 0.0000000000000000000 ) ) ;
#136 = CARTESIAN_POINT ( 'NONE',  ( 6.161417322834633800, -0.04853102194438222600, 2.574345741956887600 ) ) ;
#137 = EDGE_LOOP ( 'NONE', ( #3 ) ) ;
#138 = CARTESIAN_POINT ( 'NONE',  ( 6.161417322834632900, 1.482121625514421400, 2.603201282225764900 ) ) ;
#139 = PERSON_AND_ORGANIZATION ( #17, #201 ) ;
#140 = CARTESIAN_POINT ( 'NONE',  ( 6.161417322834646300, 0.0000000000000000000, 0.0000000000000000000 ) ) ;
#141 = VERTEX_POINT ( 'NONE', #77 ) ;
#142 = CALENDAR_DATE ( 2017, 27, 7 ) ;
#143 = ORIENTED_EDGE ( 'NONE', *, *, #39, .T. ) ;
#144 = CARTESIAN_POINT ( 'NONE',  ( 8.406651622049626100, 1.271459920831978100, 2.233194657732429100 ) ) ;
#145 =( NAMED_UNIT ( * ) PLANE_ANGLE_UNIT ( ) SI_UNIT ( $, .RADIAN. ) );
#146 = MANIFOLD_SOLID_BREP ( '1', #123 ) ;
#147 = AXIS2_PLACEMENT_3D ( 'NONE', #259, #181, #13 ) ;
#148 = EDGE_LOOP ( 'NONE', ( #78 ) ) ;
#149 = COORDINATED_UNIVERSAL_TIME_OFFSET ( 5, 0, .BEHIND. ) ;
#150 = DIRECTION ( 'NONE',  ( -0.7071067811865470200, 0.7071067811865480200, -0.0000000000000000000 ) ) ;
#151 = DIRECTION ( 'NONE',  ( 0.0000000000000000000, 0.0000000000000000000, -1.000000000000000000 ) ) ;
#152 = CIRCLE ( 'NONE', #47, 3.149606299212598200 ) ;
#153 = CARTESIAN_POINT ( 'NONE',  ( 7.017197002136639700, -0.05936516445797267900, -3.149046779152159500 ) ) ;
#154 = CARTESIAN_POINT ( 'NONE',  ( 6.161417322834632100, 1.812992814084905000, 3.184344076117152400 ) ) ;
#155 = CARTESIAN_POINT ( 'NONE',  ( 7.017197002136640500, 3.149606299212601300, 1.872690657579686200 ) ) ;
#156 = APPROVAL ( #283, 'UNSPECIFIED' ) ;
#157 = CIRCLE ( 'NONE', #105, 3.149606299212598600 ) ;
#158 = EDGE_LOOP ( 'NONE', ( #107 ) ) ;
#159 = CARTESIAN_POINT ( 'NONE',  ( 7.017197002136640500, 1.812992814084911600, -3.184344076117153800 ) ) ;
#160 = PERSON_AND_ORGANIZATION ( #17, #201 ) ;
#161 = CARTESIAN_POINT ( 'NONE',  ( 8.406651622049624400, 2.208832900349934700, 1.417146146713336500E-015 ) ) ;
#162 = EDGE_LOOP ( 'NONE', ( #268, #82 ) ) ;
#163 = CALENDAR_DATE ( 2017, 27, 7 ) ;
#164 = CARTESIAN_POINT ( 'NONE',  ( 7.996896362442887700, 1.039418485280144900, -1.825636632696263400 ) ) ;
#165 = CARTESIAN_POINT ( 'NONE',  ( 7.996896362442887700, -0.03403502145178541300, -1.805400114017971400 ) ) ;
#166 = EDGE_LOOP ( 'NONE', ( #143 ) ) ;
#167 = CARTESIAN_POINT ( 'NONE',  ( 6.861017210664024400, -0.04853102194438229500, 2.574345741956891100 ) ) ;
#168 = DIRECTION ( 'NONE',  ( 0.0000000000000000000, 0.0000000000000000000, 1.000000000000000000 ) ) ;
#169 = CARTESIAN_POINT ( 'NONE',  ( 6.161417322834632900, 2.574803149606297300, -1.530924612571392900 ) ) ;
#170 = SECURITY_CLASSIFICATION ( '', '', #277 ) ;
#171 = FACE_OUTER_BOUND ( 'NONE', #50, .T. ) ;
#172 =( BOUNDED_CURVE ( )  B_SPLINE_CURVE ( 3, ( #238, #64, #104, #101 ),
 .UNSPECIFIED., .F., .T. ) 
 B_SPLINE_CURVE_WITH_KNOTS ( ( 4, 4 ),
 ( 1.570796326794896600, 4.712388980384691500 ),
 .UNSPECIFIED. ) 
 CURVE ( )  GEOMETRIC_REPRESENTATION_ITEM ( )  RATIONAL_B_SPLINE_CURVE ( ( 1.000000000000000000, 0.3333333333333327600, 0.3333333333333327600, 1.000000000000000000 ) ) 
 REPRESENTATION_ITEM ( '' )  );
#173 = APPROVAL_PERSON_ORGANIZATION ( #35, #85, #247 ) ;
#174 = AXIS2_PLACEMENT_3D ( 'NONE', #102, #61, #179 ) ;
#175 =( CONVERSION_BASED_UNIT ( 'INCH', #210 ) LENGTH_UNIT ( ) NAMED_UNIT ( #19 ) );
#176 = AXIS2_PLACEMENT_3D ( 'NONE', #303, #217, #258 ) ;
#177 = ORIENTED_EDGE ( 'NONE', *, *, #129, .T. ) ;
#178 = ORIENTED_EDGE ( 'NONE', *, *, #226, .F. ) ;
#179 = DIRECTION ( 'NONE',  ( 0.7071067811865477900, 0.7071067811865471300, 0.0000000000000000000 ) ) ;
#180 = ADVANCED_FACE ( 'NONE', ( #266, #95 ), #26, .F. ) ;
#181 = DIRECTION ( 'NONE',  ( 1.000000000000000000, 0.0000000000000000000, 0.0000000000000000000 ) ) ;
#182 = ORIENTED_EDGE ( 'NONE', *, *, #308, .T. ) ;
#183 = LOCAL_TIME ( 14, 55, 13.00000000000000000, #124 ) ;
#184 = CARTESIAN_POINT ( 'NONE',  ( 6.861017210664024400, 1.482121625514423200, 2.603201282225768400 ) ) ;
#185 = PRODUCT ( '581244060', '581244060', '', ( #299 ) ) ;
#186 = CARTESIAN_POINT ( 'NONE',  ( 7.996896362442887700, 1.805720896036073100, -1.073644237074508300 ) ) ;
#187 = AXIS2_PLACEMENT_3D ( 'NONE', #140, #285, #193 ) ;
#188 = COORDINATED_UNIVERSAL_TIME_OFFSET ( 5, 0, .BEHIND. ) ;
#189 = CARTESIAN_POINT ( 'NONE',  ( 6.161417322834633800, 4.362848735758595200E-015, -2.574803149606300000 ) ) ;
#190 = CARTESIAN_POINT ( 'NONE',  ( 7.017197002136639700, 3.149606299212603500, 2.014737895327394300E-015 ) ) ;
#191 = CARTESIAN_POINT ( 'NONE',  ( 10.51819729353127100, -4.356779970696643500, -7.272865167332711900E-032 ) ) ;
#192 = CARTESIAN_POINT ( 'NONE',  ( 6.861017210664024400, 2.574803149606300400, -1.530924612571394900 ) ) ;
#193 = DIRECTION ( 'NONE',  ( 0.0000000000000000000, -1.776356839400250500E-015, -1.000000000000000000 ) ) ;
#194 = ORIENTED_EDGE ( 'NONE', *, *, #39, .F. ) ;
#195 = PLANE ( 'NONE',  #242 ) ;
#196 = APPROVAL_DATE_TIME ( #300, #156 ) ;
#197 = CARTESIAN_POINT ( 'NONE',  ( 0.0000000000000000000, 0.0000000000000000000, 0.0000000000000000000 ) ) ;
#198 = CARTESIAN_POINT ( 'NONE',  ( 6.161417322834639200, -6.283250385427805200E-015, 0.0000000000000000000 ) ) ;
#199 = CIRCLE ( 'NONE', #187, 2.574803149606300000 ) ;
#200 = CARTESIAN_POINT ( 'NONE',  ( 12.74530526577236200, -2.129671998455546800, 0.0000000000000000000 ) ) ;
#201 = ORGANIZATION ( 'UNSPECIFIED', 'UNSPECIFIED', '' ) ;
#202 = EDGE_CURVE ( 'NONE', #273, #273, #152, .T. ) ;
#203 = CARTESIAN_POINT ( 'NONE',  ( 6.861017210664024400, -0.04853102194439266900, -2.574345741956890300 ) ) ;
#204 = DESIGN_CONTEXT ( 'detailed design', #288, 'design' ) ;
#205 = EDGE_LOOP ( 'NONE', ( #305 ) ) ;
#206 = AXIS2_PLACEMENT_3D ( 'NONE', #197, #88, #120 ) ;
#207 = PERSON_AND_ORGANIZATION ( #17, #201 ) ;
#208 = ADVANCED_FACE ( 'NONE', ( #116, #214 ), #195, .T. ) ;
#209 = ORIENTED_EDGE ( 'NONE', *, *, #33, .F. ) ;
#210 = LENGTH_MEASURE_WITH_UNIT ( LENGTH_MEASURE( 0.02539999999999999900 ), #119 );
#211 = EDGE_CURVE ( 'NONE', #272, #141, #49, .T. ) ;
#212 = AXIS2_PLACEMENT_3D ( 'NONE', #275, #80, #130 ) ;
#213 = CARTESIAN_POINT ( 'NONE',  ( 6.161417322834632900, 1.482121625514410500, -2.603201282225770600 ) ) ;
#214 = FACE_BOUND ( 'NONE', #137, .T. ) ;
#215 = EDGE_LOOP ( 'NONE', ( #194 ) ) ;
#216 = VERTEX_POINT ( 'NONE', #256 ) ;
#217 = DIRECTION ( 'NONE',  ( 0.7071067811865470200, -0.7071067811865480200, 0.0000000000000000000 ) ) ;
#218 = ADVANCED_FACE ( 'NONE', ( #20 ), #243, .T. ) ;
#219 = ADVANCED_FACE ( 'NONE', ( #271, #289 ), #126, .F. ) ;
#220 = CARTESIAN_POINT ( 'NONE',  ( 6.161417322834632100, 1.812992814084909000, -3.184344076117149800 ) ) ;
#221 = CC_DESIGN_PERSON_AND_ORGANIZATION_ASSIGNMENT ( #28, #264, ( #31 ) ) ;
#222 = ADVANCED_FACE ( 'NONE', ( #304, #89 ), #251, .T. ) ;
#223 = CC_DESIGN_DATE_AND_TIME_ASSIGNMENT ( #5, #282, ( #170 ) ) ;
#224 = FACE_OUTER_BOUND ( 'NONE', #245, .T. ) ;
#225 = CIRCLE ( 'NONE', #70, 2.574803149606300400 ) ;
#226 = EDGE_CURVE ( 'NONE', #252, #40, #157, .T. ) ;
#227 = CARTESIAN_POINT ( 'NONE',  ( 7.996896362442887700, 1.805720896036077500, 1.073644237074501000 ) ) ;
#228 = APPROVAL_STATUS ( 'not_yet_approved' ) ;
#229 = EDGE_LOOP ( 'NONE', ( #178, #232 ) ) ;
#230 = CARTESIAN_POINT ( 'NONE',  ( 7.996896362442887700, 1.805720896036075600, -3.645309666545751000E-015 ) ) ;
#231 = CARTESIAN_POINT ( 'NONE',  ( 6.161417322834632100, 3.149606299212597700, 1.872690657579683600 ) ) ;
#232 = ORIENTED_EDGE ( 'NONE', *, *, #121, .T. ) ;
#233 = CARTESIAN_POINT ( 'NONE',  ( 3.080708661417323100, 0.0000000000000000000, 0.0000000000000000000 ) ) ;
#234 = LOCAL_TIME ( 14, 55, 13.00000000000000000, #108 ) ;
#235 = ORIENTED_EDGE ( 'NONE', *, *, #129, .F. ) ;
#236 = CARTESIAN_POINT ( 'NONE',  ( 6.161417322834633800, 5.732043472403704300E-015, -3.149606299212598200 ) ) ;
#237 = CARTESIAN_POINT ( 'NONE',  ( 6.161417322834633800, 2.574803149606300400, -5.190511187962099900E-015 ) ) ;
#238 = CARTESIAN_POINT ( 'NONE',  ( 6.161417322834632100, 2.552645258232839400E-016, 3.149606299212598200 ) ) ;
#239 = EDGE_CURVE ( 'NONE', #93, #93, #94, .T. ) ;
#240 = FACE_OUTER_BOUND ( 'NONE', #166, .T. ) ;
#241 = CALENDAR_DATE ( 2017, 27, 7 ) ;
#242 = AXIS2_PLACEMENT_3D ( 'NONE', #29, #309, #168 ) ;
#243 =( BOUNDED_SURFACE ( )  B_SPLINE_SURFACE ( 3, 3, ( 
 ( #59, #111, #118, #161, #98, #144, #301 ),
 ( #15, #310, #41, #53, #67, #110, #244 ),
 ( #153, #159, #294, #190, #155, #30, #255 ),
 ( #248, #220, #133, #270, #231, #154, #81 ) ),
 .UNSPECIFIED., .F., .F., .T. ) 
 B_SPLINE_SURFACE_WITH_KNOTS ( ( 4, 4 ),
 ( 4, 3, 4 ),
 ( 0.0000000000000000000, 1.000000000000000000 ),
 ( 0.0000000000000000000, 0.5000000000000000000, 1.000000000000000000 ),
 .UNSPECIFIED. ) 
 GEOMETRIC_REPRESENTATION_ITEM ( )  RATIONAL_B_SPLINE_SURFACE ( (
 ( 1.000000000000000000, 0.8002741005225378900, 0.8002741005225378900, 1.000000000000000000, 0.8002741005225378900, 0.8002741005225378900, 1.000000000000000000),
 ( 0.9482053969659235400, 0.7588242211675204600, 0.7588242211675204600, 0.9482053969659235400, 0.7588242211675204600, 0.7588242211675204600, 0.9482053969659235400),
 ( 0.9482053969659235400, 0.7588242211675204600, 0.7588242211675204600, 0.9482053969659235400, 0.7588242211675204600, 0.7588242211675204600, 0.9482053969659235400),
 ( 1.000000000000000000, 0.8002741005225378900, 0.8002741005225378900, 1.000000000000000000, 0.8002741005225378900, 0.8002741005225378900, 1.000000000000000000) ) ) 
 REPRESENTATION_ITEM ( '' )  SURFACE ( )  );
#244 = CARTESIAN_POINT ( 'NONE',  ( 7.806489528277536400, -0.05313159567247186000, 2.818384851642246900 ) ) ;
#245 = EDGE_LOOP ( 'NONE', ( #74 ) ) ;
#246 = CARTESIAN_POINT ( 'NONE',  ( 0.0000000000000000000, 0.0000000000000000000, 0.0000000000000000000 ) ) ;
#247 = APPROVAL_ROLE ( '' ) ;
#248 = CARTESIAN_POINT ( 'NONE',  ( 6.161417322834632100, -0.05936516445797259500, -3.149046779152154600 ) ) ;
#249 = CC_DESIGN_APPROVAL ( #54, ( #58 ) ) ;
#250 = PRODUCT_DEFINITION_SHAPE ( 'NONE', 'NONE',  #58 ) ;
#251 = PLANE ( 'NONE',  #68 ) ;
#252 = VERTEX_POINT ( 'NONE', #236 ) ;
#253 = PERSON_AND_ORGANIZATION ( #17, #201 ) ;
#254 = DIRECTION ( 'NONE',  ( 1.000000000000000000, 0.0000000000000000000, 0.0000000000000000000 ) ) ;
#255 = CARTESIAN_POINT ( 'NONE',  ( 7.017197002136639700, -0.05936516445797671700, 3.149046779152159500 ) ) ;
#256 = CARTESIAN_POINT ( 'NONE',  ( 0.0000000000000000000, 0.0000000000000000000, -3.149606299212598600 ) ) ;
#257 = LOCAL_TIME ( 14, 55, 13.00000000000000000, #188 ) ;
#258 = DIRECTION ( 'NONE',  ( 0.7071067811865481300, 0.7071067811865470200, 0.0000000000000000000 ) ) ;
#259 = CARTESIAN_POINT ( 'NONE',  ( 3.080708661417323100, 0.0000000000000000000, 0.0000000000000000000 ) ) ;
#260 = CARTESIAN_POINT ( 'NONE',  ( 6.861017210664024400, 2.574803149606304000, -5.190511187962099900E-015 ) ) ;
#261 = COORDINATED_UNIVERSAL_TIME_OFFSET ( 5, 0, .BEHIND. ) ;
#262 = CARTESIAN_POINT ( 'NONE',  ( 7.506263850784204500, 2.304438994318447300, -1.370171686760139500 ) ) ;
#263 = AXIS2_PLACEMENT_3D ( 'NONE', #279, #297, #38 ) ;
#264 = PERSON_AND_ORGANIZATION_ROLE ( 'design_supplier' ) ;
#265 = CC_DESIGN_PERSON_AND_ORGANIZATION_ASSIGNMENT ( #97, #127, ( #31 ) ) ;
#266 = FACE_OUTER_BOUND ( 'NONE', #158, .T. ) ;
#267 = ORIENTED_EDGE ( 'NONE', *, *, #33, .T. ) ;
#268 = ORIENTED_EDGE ( 'NONE', *, *, #72, .T. ) ;
#269 = LOCAL_TIME ( 14, 55, 13.00000000000000000, #149 ) ;
#270 = CARTESIAN_POINT ( 'NONE',  ( 6.161417322834632100, 3.149606299212598600, 2.023274920307594800E-015 ) ) ;
#271 = FACE_OUTER_BOUND ( 'NONE', #148, .T. ) ;
#272 = VERTEX_POINT ( 'NONE', #189 ) ;
#273 = VERTEX_POINT ( 'NONE', #200 ) ;
#274 = DIRECTION ( 'NONE',  ( 0.7071067811865470200, -0.7071067811865480200, 9.860761315262649800E-032 ) ) ;
#275 = CARTESIAN_POINT ( 'NONE',  ( 6.161417322834634700, -1.639108796198557900E-015, 7.272865167332712900E-032 ) ) ;
#276 = CARTESIAN_POINT ( 'NONE',  ( 6.161417322834632900, 2.574803149606304000, 1.530924612571382500 ) ) ;
#277 = SECURITY_CLASSIFICATION_LEVEL ( 'unclassified' ) ;
#278 = CARTESIAN_POINT ( 'NONE',  ( 10.51819729353126800, -4.356779970696639900, 0.0000000000000000000 ) ) ;
#279 = CARTESIAN_POINT ( 'NONE',  ( 6.161417322834646300, 0.0000000000000000000, 0.0000000000000000000 ) ) ;
#280 = PERSON_AND_ORGANIZATION_ROLE ( 'classification_officer' ) ;
#281 = EDGE_LOOP ( 'NONE', ( #182 ) ) ;
#282 = DATE_TIME_ROLE ( 'classification_date' ) ;
#283 = APPROVAL_STATUS ( 'not_yet_approved' ) ;
#284 = APPROVAL_DATE_TIME ( #291, #85 ) ;
#285 = DIRECTION ( 'NONE',  ( -1.000000000000000000, -0.0000000000000000000, -0.0000000000000000000 ) ) ;
#286 = APPROVAL_ROLE ( '' ) ;
#287 = CARTESIAN_POINT ( 'NONE',  ( 6.161417322834632100, 2.552645258232839400E-016, 3.149606299212598200 ) ) ;
#288 = APPLICATION_CONTEXT ( 'configuration controlled 3d designs of mechanical parts and assemblies' ) ;
#289 = FACE_OUTER_BOUND ( 'NONE', #11, .T. ) ;
#290 = CC_DESIGN_APPROVAL ( #85, ( #31 ) ) ;
#291 = DATE_AND_TIME ( #163, #234 ) ;
#292 = DIRECTION ( 'NONE',  ( -0.7071067811865470200, 0.7071067811865480200, 2.360776680514389900E-032 ) ) ;
#293 = FACE_OUTER_BOUND ( 'NONE', #87, .T. ) ;
#294 = CARTESIAN_POINT ( 'NONE',  ( 7.017197002136640500, 3.149606299212603500, -1.872690657579681800 ) ) ;
#295 = PERSON_AND_ORGANIZATION_ROLE ( 'design_owner' ) ;
#296 = CIRCLE ( 'NONE', #206, 3.149606299212598600 ) ;
#297 = DIRECTION ( 'NONE',  ( 1.000000000000000000, 0.0000000000000000000, 0.0000000000000000000 ) ) ;
#298 = FACE_OUTER_BOUND ( 'NONE', #162, .T. ) ;
#299 = MECHANICAL_CONTEXT ( 'NONE', #86, 'mechanical' ) ;
#300 = DATE_AND_TIME ( #142, #134 ) ;
#301 = CARTESIAN_POINT ( 'NONE',  ( 8.406651622049624400, -0.04163305376365462900, 2.208440506443996500 ) ) ;
#302 = CARTESIAN_POINT ( 'NONE',  ( 7.996896362442887700, -0.03403502145177812000, 1.805400114017971400 ) ) ;
#303 = CARTESIAN_POINT ( 'NONE',  ( 8.339807308182953300, -2.178389985348322600, 0.0000000000000000000 ) ) ;
#304 = FACE_OUTER_BOUND ( 'NONE', #205, .T. ) ;
#305 = ORIENTED_EDGE ( 'NONE', *, *, #202, .F. ) ;
#306 = APPROVAL_DATE_TIME ( #131, #54 ) ;
#307 = CARTESIAN_POINT ( 'NONE',  ( 0.0000000000000000000, 0.0000000000000000000, -2.574803149606300000 ) ) ;
#308 = EDGE_CURVE ( 'NONE', #25, #25, #225, .T. ) ;
#309 = DIRECTION ( 'NONE',  ( -1.000000000000000000, 0.0000000000000000000, 0.0000000000000000000 ) ) ;
#310 = CARTESIAN_POINT ( 'NONE',  ( 7.806489528277535500, 1.622621650837746200, -2.849975797743354600 ) ) ;
#311 = ADVANCED_BREP_SHAPE_REPRESENTATION ( '581244060', ( #146, #66 ), #36 ) ;
#312 = DIRECTION ( 'NONE',  ( 0.7071067811865470200, -0.7071067811865480200, 0.0000000000000000000 ) ) ;
ENDSEC;
END-ISO-10303-21;
