ISO-10303-21;
HEADER;
FILE_DESCRIPTION (( 'STEP AP203' ),
    '1' );
FILE_NAME ('581244040.STEP',
    '2015-12-04T19:21:53',
    ( '' ),
    ( '' ),
    'SwSTEP 2.0',
    'SolidWorks 2015',
    '' );
FILE_SCHEMA (( 'CONFIG_CONTROL_DESIGN' ));
ENDSEC;

DATA;
#1 =( BOUNDED_CURVE ( )  B_SPLINE_CURVE ( 3, ( #31, #302, #46, #62 ),
 .UNSPECIFIED., .F., .T. ) 
 B_SPLINE_CURVE_WITH_KNOTS ( ( 4, 4 ),
 ( 1.570796326794890100, 4.712388980384688800 ),
 .UNSPECIFIED. ) 
 CURVE ( )  GEOMETRIC_REPRESENTATION_ITEM ( )  RATIONAL_B_SPLINE_CURVE ( ( 1.000000000000000000, 0.3333333333333315900, 0.3333333333333315900, 1.000000000000000000 ) ) 
 REPRESENTATION_ITEM ( '' )  );
#2 = CARTESIAN_POINT ( 'NONE',  ( 4.251968503937011900, 3.496765431890256900E-014, 0.0000000000000000000 ) ) ;
#3 = DIRECTION ( 'NONE',  ( 0.7071067811865481300, 0.7071067811865468000, -2.128075551350118800E-028 ) ) ;
#4 = CC_DESIGN_APPROVAL ( #274, ( #9 ) ) ;
#5 = EDGE_CURVE ( 'NONE', #224, #235, #199, .T. ) ;
#6 = EDGE_CURVE ( 'NONE', #235, #224, #140, .T. ) ;
#7 = DATE_TIME_ROLE ( 'creation_date' ) ;
#8 = CARTESIAN_POINT ( 'NONE',  ( 4.251968503937027000, 0.0000000000000000000, -2.165354330708667800 ) ) ;
#9 = SECURITY_CLASSIFICATION ( '', '', #216 ) ;
#10 = CARTESIAN_POINT ( 'NONE',  ( 8.024132631920357600, -2.241027397067598200, 0.0000000000000000000 ) ) ;
#11 = CARTESIAN_POINT ( 'NONE',  ( 5.514912797245454400, 0.7151962054680030000, 1.256171994974494500 ) ) ;
#12 = APPROVAL_ROLE ( '' ) ;
#13 = ORIENTED_EDGE ( 'NONE', *, *, #208, .T. ) ;
#14 = AXIS2_PLACEMENT_3D ( 'NONE', #299, #158, #106 ) ;
#15 = AXIS2_PLACEMENT_3D ( 'NONE', #36, #223, #187 ) ;
#16 = PERSON_AND_ORGANIZATION_ROLE ( 'classification_officer' ) ;
#17 = EDGE_LOOP ( 'NONE', ( #269, #153 ) ) ;
#18 = CARTESIAN_POINT ( 'NONE',  ( 4.733344573544403700, 1.771653543307123200, 1.053388494888589400 ) ) ;
#19 = EDGE_LOOP ( 'NONE', ( #103, #61 ) ) ;
#20 = DIRECTION ( 'NONE',  ( -1.000000000000000000, 4.528274217988372900E-056, -1.504752176709078700E-028 ) ) ;
#21 = DIRECTION ( 'NONE',  ( 0.7071067811865469100, -0.7071067811865481300, -4.930380657631321600E-032 ) ) ;
#22 = APPROVAL_STATUS ( 'not_yet_approved' ) ;
#23 = EDGE_LOOP ( 'NONE', ( #32 ) ) ;
#24 = CARTESIAN_POINT ( 'NONE',  ( 5.795567084647324000, 0.8741286955720123400, 1.535321327191044400 ) ) ;
#25 = CC_DESIGN_DATE_AND_TIME_ASSIGNMENT ( #264, #7, ( #110 ) ) ;
#26 = CARTESIAN_POINT ( 'NONE',  ( 5.514912797245454400, 0.7151962054680023300, -1.256171994974495200 ) ) ;
#27 = PERSON_AND_ORGANIZATION ( #281, #249 ) ;
#28 = PERSON_AND_ORGANIZATION ( #281, #249 ) ;
#29 = CARTESIAN_POINT ( 'NONE',  ( 4.733344573544404600, 1.771653543307123000, -4.163708159808288300E-016 ) ) ;
#30 = ORIENTED_EDGE ( 'NONE', *, *, #240, .T. ) ;
#31 = CARTESIAN_POINT ( 'NONE',  ( 4.251968503937029600, 1.748382715945128500E-014, 2.165354330708667800 ) ) ;
#32 = ORIENTED_EDGE ( 'NONE', *, *, #53, .F. ) ;
#33 = CALENDAR_DATE ( 2015, 4, 12 ) ;
#34 = PERSON_AND_ORGANIZATION ( #281, #249 ) ;
#35 = DIRECTION ( 'NONE',  ( 0.7071067811865482400, 0.7071067811865468000, -2.128075551350118800E-028 ) ) ;
#36 = CARTESIAN_POINT ( 'NONE',  ( 0.0000000000000000000, 0.0000000000000000000, 0.0000000000000000000 ) ) ;
#37 = CARTESIAN_POINT ( 'NONE',  ( 5.795567084647324000, -0.02862272446248960400, 1.518302848180239600 ) ) ;
#38 = APPROVAL_ROLE ( '' ) ;
#39 = ORIENTED_EDGE ( 'NONE', *, *, #208, .F. ) ;
#40 = CARTESIAN_POINT ( 'NONE',  ( 5.795567084647324000, 0.8741286955719994600, -1.535321327191052200 ) ) ;
#41 = CARTESIAN_POINT ( 'NONE',  ( 5.514912797245453500, -0.02341859274204594100, 1.242247784874736200 ) ) ;
#42 = PRODUCT_DEFINITION_FORMATION_WITH_SPECIFIED_SOURCE ( 'ANY', '', #142, .NOT_KNOWN. ) ;
#43 = APPROVAL_PERSON_ORGANIZATION ( #28, #311, #12 ) ;
#44 = EDGE_LOOP ( 'NONE', ( #52, #309 ) ) ;
#45 =( BOUNDED_SURFACE ( )  B_SPLINE_SURFACE ( 3, 3, ( 
 ( #234, #26, #58, #55, #301, #11, #41 ),
 ( #47, #230, #80, #112, #197, #175, #150 ),
 ( #260, #129, #252, #29, #18, #102, #188 ),
 ( #84, #177, #308, #219, #271, #304, #109 ) ),
 .UNSPECIFIED., .F., .F., .F. ) 
 B_SPLINE_SURFACE_WITH_KNOTS ( ( 4, 4 ),
 ( 4, 3, 4 ),
 ( 0.0000000000000000000, 1.000000000000000000 ),
 ( 0.0000000000000000000, 0.5000000000000000000, 1.000000000000000000 ),
 .UNSPECIFIED. ) 
 GEOMETRIC_REPRESENTATION_ITEM ( )  RATIONAL_B_SPLINE_SURFACE ( (
 ( 1.000000000000000000, 0.8002741005225327800, 0.8002741005225327800, 1.000000000000000000, 0.8002741005225327800, 0.8002741005225327800, 1.000000000000000000),
 ( 0.9482053969659235400, 0.7588242211675155800, 0.7588242211675155800, 0.9482053969659235400, 0.7588242211675155800, 0.7588242211675155800, 0.9482053969659235400),
 ( 0.9482053969659235400, 0.7588242211675155800, 0.7588242211675155800, 0.9482053969659235400, 0.7588242211675155800, 0.7588242211675155800, 0.9482053969659235400),
 ( 1.000000000000000000, 0.8002741005225327800, 0.8002741005225327800, 1.000000000000000000, 0.8002741005225327800, 0.8002741005225327800, 1.000000000000000000) ) ) 
 REPRESENTATION_ITEM ( '' )  SURFACE ( )  );
#46 = CARTESIAN_POINT ( 'NONE',  ( 2.458130241691331100, -4.330708661417350700, -2.165354330708659800 ) ) ;
#47 = CARTESIAN_POINT ( 'NONE',  ( 5.177321619498656900, -0.02988652256576349700, -1.585341479048757200 ) ) ;
#48 = CIRCLE ( 'NONE', #194, 2.165354330708662500 ) ;
#49 = ADVANCED_FACE ( 'NONE', ( #98, #232 ), #203, .F. ) ;
#50 = PERSON_AND_ORGANIZATION ( #281, #249 ) ;
#51 = ORIENTED_EDGE ( 'NONE', *, *, #220, .F. ) ;
#52 = ORIENTED_EDGE ( 'NONE', *, *, #196, .F. ) ;
#53 = EDGE_CURVE ( 'NONE', #126, #126, #152, .T. ) ;
#54 = AXIS2_PLACEMENT_3D ( 'NONE', #270, #217, #136 ) ;
#55 = CARTESIAN_POINT ( 'NONE',  ( 5.514912797245453500, 1.242468506446861700, -2.883154412778163700E-016 ) ) ;
#56 = ORIENTED_EDGE ( 'NONE', *, *, #220, .T. ) ;
#57 = EDGE_LOOP ( 'NONE', ( #30 ) ) ;
#58 = CARTESIAN_POINT ( 'NONE',  ( 5.514912797245454400, 1.242468506446861500, -0.7387460346842980000 ) ) ;
#59 = DIRECTION ( 'NONE',  ( 0.0000000000000000000, 1.504657806141803700E-028, -1.000000000000000000 ) ) ;
#60 = CARTESIAN_POINT ( 'NONE',  ( 5.382955645179017700, 1.937983863723496300, -8.193600572943782300E-015 ) ) ;
#61 = ORIENTED_EDGE ( 'NONE', *, *, #5, .T. ) ;
#62 = CARTESIAN_POINT ( 'NONE',  ( 4.251968503937027000, 0.0000000000000000000, -2.165354330708667800 ) ) ;
#63 = LENGTH_MEASURE_WITH_UNIT ( LENGTH_MEASURE( 0.02539999999999999900 ), #116 );
#64 = CC_DESIGN_SECURITY_CLASSIFICATION ( #9, ( #42 ) ) ;
#65 = ORIENTED_EDGE ( 'NONE', *, *, #228, .T. ) ;
#66 = EDGE_LOOP ( 'NONE', ( #56, #85 ) ) ;
#67 = AXIS2_PLACEMENT_3D ( 'NONE', #242, #213, #148 ) ;
#68 = PERSON_AND_ORGANIZATION_ROLE ( 'design_supplier' ) ;
#69 = FACE_BOUND ( 'NONE', #239, .T. ) ;
#70 =( BOUNDED_CURVE ( )  B_SPLINE_CURVE ( 3, ( #156, #155, #202, #163 ),
 .UNSPECIFIED., .F., .T. ) 
 B_SPLINE_CURVE_WITH_KNOTS ( ( 4, 4 ),
 ( 1.570796326794898300, 4.712388980384688800 ),
 .UNSPECIFIED. ) 
 CURVE ( )  GEOMETRIC_REPRESENTATION_ITEM ( )  RATIONAL_B_SPLINE_CURVE ( ( 1.000000000000000000, 0.3333333333333342600, 0.3333333333333342600, 1.000000000000000000 ) ) 
 REPRESENTATION_ITEM ( '' )  );
#71 = CYLINDRICAL_SURFACE ( 'NONE', #78, 1.771653543307087900 ) ;
#72 = ORIENTED_EDGE ( 'NONE', *, *, #53, .T. ) ;
#73 = ADVANCED_BREP_SHAPE_REPRESENTATION ( '581244040', ( #227, #306 ), #174 ) ;
#74 = DIRECTION ( 'NONE',  ( 0.7071067811865482400, 0.7071067811865468000, -2.128075551350118800E-028 ) ) ;
#75 = COORDINATED_UNIVERSAL_TIME_OFFSET ( 5, 0, .BEHIND. ) ;
#76 =( BOUNDED_SURFACE ( )  B_SPLINE_SURFACE ( 3, 3, ( 
 ( #225, #40, #241, #93, #210, #24, #37 ),
 ( #125, #300, #134, #60, #307, #138, #113 ),
 ( #247, #193, #154, #195, #185, #275, #135 ),
 ( #250, #290, #131, #237, #145, #88, #287 ) ),
 .UNSPECIFIED., .F., .F., .T. ) 
 B_SPLINE_SURFACE_WITH_KNOTS ( ( 4, 4 ),
 ( 4, 3, 4 ),
 ( 0.0000000000000000000, 1.000000000000000000 ),
 ( 0.0000000000000000000, 0.5000000000000000000, 1.000000000000000000 ),
 .UNSPECIFIED. ) 
 GEOMETRIC_REPRESENTATION_ITEM ( )  RATIONAL_B_SPLINE_SURFACE ( (
 ( 1.000000000000000000, 0.8002741005225347800, 0.8002741005225347800, 1.000000000000000000, 0.8002741005225347800, 0.8002741005225347800, 1.000000000000000000),
 ( 0.9482053969659241000, 0.7588242211675179100, 0.7588242211675179100, 0.9482053969659241000, 0.7588242211675179100, 0.7588242211675179100, 0.9482053969659241000),
 ( 0.9482053969659241000, 0.7588242211675179100, 0.7588242211675179100, 0.9482053969659241000, 0.7588242211675179100, 0.7588242211675179100, 0.9482053969659241000),
 ( 1.000000000000000000, 0.8002741005225347800, 0.8002741005225347800, 1.000000000000000000, 0.8002741005225347800, 0.8002741005225347800, 1.000000000000000000) ) ) 
 REPRESENTATION_ITEM ( '' )  SURFACE ( )  );
#77 = DIRECTION ( 'NONE',  ( 1.504752176709078900E-028, 1.504657806141803700E-028, -1.000000000000000000 ) ) ;
#78 = AXIS2_PLACEMENT_3D ( 'NONE', #231, #21, #74 ) ;
#79 = APPLICATION_CONTEXT ( 'configuration controlled 3d designs of mechanical parts and assemblies' ) ;
#80 = CARTESIAN_POINT ( 'NONE',  ( 5.177321619498656900, 1.585623161228318900, -0.9427786835505651600 ) ) ;
#81 = DIRECTION ( 'NONE',  ( 0.0000000000000000000, 0.0000000000000000000, 1.000000000000000000 ) ) ;
#82 = APPROVAL_ROLE ( '' ) ;
#83 = VERTEX_POINT ( 'NONE', #8 ) ;
#84 = CARTESIAN_POINT ( 'NONE',  ( 4.251968503937022500, -0.03339290500761401400, -1.771338813273090500 ) ) ;
#85 = ORIENTED_EDGE ( 'NONE', *, *, #196, .T. ) ;
#86 = FACE_OUTER_BOUND ( 'NONE', #294, .T. ) ;
#87 = COORDINATED_UNIVERSAL_TIME_OFFSET ( 5, 0, .BEHIND. ) ;
#88 = CARTESIAN_POINT ( 'NONE',  ( 4.251968503937027000, 1.246432559683405800, 2.189236552330557900 ) ) ;
#89 = UNCERTAINTY_MEASURE_WITH_UNIT (LENGTH_MEASURE( 1.000000000000000100E-005 ), #172, 'distance_accuracy_value', 'NONE');
#90 = EDGE_LOOP ( 'NONE', ( #65, #162 ) ) ;
#91 =( NAMED_UNIT ( * ) SI_UNIT ( $, .STERADIAN. ) SOLID_ANGLE_UNIT ( ) );
#92 = AXIS2_PLACEMENT_3D ( 'NONE', #191, #189, #99 ) ;
#93 = CARTESIAN_POINT ( 'NONE',  ( 5.795567084647324000, 1.518572618990607200, -6.422167889552111200E-015 ) ) ;
#94 = PERSON_AND_ORGANIZATION_ROLE ( 'design_owner' ) ;
#95 = AXIS2_PLACEMENT_3D ( 'NONE', #253, #159, #59 ) ;
#96 = CC_DESIGN_PERSON_AND_ORGANIZATION_ASSIGNMENT ( #261, #212, ( #110 ) ) ;
#97 = DATE_AND_TIME ( #293, #205 ) ;
#98 = FACE_OUTER_BOUND ( 'NONE', #170, .T. ) ;
#99 = DIRECTION ( 'NONE',  ( 0.0000000000000000000, 1.504657806141803700E-028, -1.000000000000000000 ) ) ;
#100 = CARTESIAN_POINT ( 'NONE',  ( 4.251968503937020700, 1.748382715945128500E-014, 0.0000000000000000000 ) ) ;
#101 = APPROVAL_DATE_TIME ( #312, #274 ) ;
#102 = CARTESIAN_POINT ( 'NONE',  ( 4.733344573544403700, 1.019808457922776000, 1.791193542815920500 ) ) ;
#103 = ORIENTED_EDGE ( 'NONE', *, *, #6, .T. ) ;
#104 = DIRECTION ( 'NONE',  ( -1.000000000000000000, -0.0000000000000000000, 1.504752176709079300E-028 ) ) ;
#105 = ADVANCED_FACE ( 'NONE', ( #184, #119 ), #182, .T. ) ;
#106 = DIRECTION ( 'NONE',  ( 0.7071067811865482400, 0.7071067811865469100, -2.128075551350119200E-028 ) ) ;
#107 = ADVANCED_FACE ( 'NONE', ( #262 ), #45, .F. ) ;
#108 = APPROVAL_PERSON_ORGANIZATION ( #167, #254, #82 ) ;
#109 = CARTESIAN_POINT ( 'NONE',  ( 4.251968503937022500, -0.03339290500761318100, 1.771338813273090100 ) ) ;
#110 = PRODUCT_DEFINITION ( 'UNKNOWN', '', #42, #128 ) ;
#111 = ORIENTED_EDGE ( 'NONE', *, *, #240, .F. ) ;
#112 = CARTESIAN_POINT ( 'NONE',  ( 5.177321619498656900, 1.585623161228319100, -3.736856910798245600E-016 ) ) ;
#113 = CARTESIAN_POINT ( 'NONE',  ( 5.382955645179017700, -0.03652797202480487200, 1.937639585504039800 ) ) ;
#114 = DIRECTION ( 'NONE',  ( 1.000000000000000000, 0.0000000000000000000, -1.504752176709079300E-028 ) ) ;
#115 = DIRECTION ( 'NONE',  ( 0.7071067811865469100, -0.7071067811865481300, -7.395570986446982400E-032 ) ) ;
#116 =( LENGTH_UNIT ( ) NAMED_UNIT ( * ) SI_UNIT ( $, .METRE. ) );
#117 = SHAPE_DEFINITION_REPRESENTATION ( #255, #73 ) ;
#118 = AXIS2_PLACEMENT_3D ( 'NONE', #10, #200, #3 ) ;
#119 = FACE_BOUND ( 'NONE', #263, .T. ) ;
#120 = ADVANCED_FACE ( 'NONE', ( #86, #226 ), #71, .F. ) ;
#121 = VERTEX_POINT ( 'NONE', #211 ) ;
#122 = CC_DESIGN_PERSON_AND_ORGANIZATION_ASSIGNMENT ( #27, #68, ( #42 ) ) ;
#123 = VERTEX_POINT ( 'NONE', #132 ) ;
#124 = VERTEX_POINT ( 'NONE', #209 ) ;
#125 = CARTESIAN_POINT ( 'NONE',  ( 5.382955645179017700, -0.03652797202482126200, -1.937639585504039600 ) ) ;
#126 = VERTEX_POINT ( 'NONE', #147 ) ;
#127 = DIRECTION ( 'NONE',  ( 0.7071067811865469100, -0.7071067811865481300, -4.930380657631321600E-032 ) ) ;
#128 = DESIGN_CONTEXT ( 'detailed design', #79, 'design' ) ;
#129 = CARTESIAN_POINT ( 'NONE',  ( 4.733344573544403700, 1.019808457922775300, -1.791193542815921400 ) ) ;
#130 = CIRCLE ( 'NONE', #54, 2.165354330708662500 ) ;
#131 = CARTESIAN_POINT ( 'NONE',  ( 4.251968503937027000, 2.165354330708696200, -1.287474827086057000 ) ) ;
#132 = CARTESIAN_POINT ( 'NONE',  ( 8.789700997378247400, -1.475459031609745600, -4.608037611191205600E-028 ) ) ;
#133 = CYLINDRICAL_SURFACE ( 'NONE', #92, 2.165354330708663300 ) ;
#134 = CARTESIAN_POINT ( 'NONE',  ( 5.382955645179019500, 1.937983863723490700, -1.152285057672914200 ) ) ;
#135 = CARTESIAN_POINT ( 'NONE',  ( 4.840317033457155900, -0.04081355056484134400, 2.164969660667107400 ) ) ;
#136 = DIRECTION ( 'NONE',  ( 0.0000000000000000000, 1.000000000000000000, -1.504685732125998000E-028 ) ) ;
#137 = CC_DESIGN_PERSON_AND_ORGANIZATION_ASSIGNMENT ( #258, #16, ( #9 ) ) ;
#138 = CARTESIAN_POINT ( 'NONE',  ( 5.382955645179019500, 1.115552384950976100, 1.959358360948561900 ) ) ;
#139 = CARTESIAN_POINT ( 'NONE',  ( 0.0000000000000000000, 0.0000000000000000000, 0.0000000000000000000 ) ) ;
#140 = CIRCLE ( 'NONE', #288, 1.771653543307087900 ) ;
#141 = FACE_OUTER_BOUND ( 'NONE', #218, .T. ) ;
#142 = PRODUCT ( '581244040', '581244040', '', ( #276 ) ) ;
#143 = DIRECTION ( 'NONE',  ( 1.000000000000000000, 0.0000000000000000000, 0.0000000000000000000 ) ) ;
#144 = FACE_OUTER_BOUND ( 'NONE', #305, .T. ) ;
#145 = CARTESIAN_POINT ( 'NONE',  ( 4.251968503937027000, 2.165354330708707300, 1.287474827086038300 ) ) ;
#146 = APPLICATION_PROTOCOL_DEFINITION ( 'international standard', 'config_control_design', 1994, #229 ) ;
#147 = CARTESIAN_POINT ( 'NONE',  ( 3.258321642480291800E-028, 3.258117296763751300E-028, -2.165354330708663300 ) ) ;
#148 = DIRECTION ( 'NONE',  ( 0.7071067811865482400, 0.7071067811865469100, -2.128075551350119200E-028 ) ) ;
#149 = LOCAL_TIME ( 14, 21, 53.00000000000000000, #246 ) ;
#150 = CARTESIAN_POINT ( 'NONE',  ( 5.177321619498656900, -0.02988652256576274800, 1.585341479048757200 ) ) ;
#151 = ORIENTED_EDGE ( 'NONE', *, *, #283, .F. ) ;
#152 = CIRCLE ( 'NONE', #15, 2.165354330708663300 ) ;
#153 = ORIENTED_EDGE ( 'NONE', *, *, #228, .F. ) ;
#154 = CARTESIAN_POINT ( 'NONE',  ( 4.840317033457155900, 2.165354330708693100, -1.287474827086054500 ) ) ;
#155 = CARTESIAN_POINT ( 'NONE',  ( 2.784282653008743200, -3.543307086614168300, 1.771653543307082800 ) ) ;
#156 = CARTESIAN_POINT ( 'NONE',  ( 4.251968503937022500, 0.0000000000000000000, 1.771653543307083900 ) ) ;
#157 = CC_DESIGN_PERSON_AND_ORGANIZATION_ASSIGNMENT ( #50, #215, ( #42 ) ) ;
#158 = DIRECTION ( 'NONE',  ( 0.7071067811865469100, -0.7071067811865481300, -7.395570986446982400E-032 ) ) ;
#159 = DIRECTION ( 'NONE',  ( 1.000000000000000000, 0.0000000000000000000, -1.504752176709079300E-028 ) ) ;
#160 = CIRCLE ( 'NONE', #296, 1.771653543307088100 ) ;
#161 = CARTESIAN_POINT ( 'NONE',  ( 7.258564266462511400, -3.006595762525515100, 0.0000000000000000000 ) ) ;
#162 = ORIENTED_EDGE ( 'NONE', *, *, #5, .F. ) ;
#163 = CARTESIAN_POINT ( 'NONE',  ( 4.251968503937027000, 0.0000000000000000000, -1.771653543307083900 ) ) ;
#164 = DIRECTION ( 'NONE',  ( 0.7071067811865482400, 0.7071067811865469100, -2.128075551350119200E-028 ) ) ;
#165 = FACE_OUTER_BOUND ( 'NONE', #44, .T. ) ;
#166 = FACE_OUTER_BOUND ( 'NONE', #23, .T. ) ;
#167 = PERSON_AND_ORGANIZATION ( #281, #249 ) ;
#168 = CLOSED_SHELL ( 'NONE', ( #233, #186, #277, #105, #244, #120, #49, #107 ) ) ;
#169 = LOCAL_TIME ( 14, 21, 53.00000000000000000, #273 ) ;
#170 = EDGE_LOOP ( 'NONE', ( #39 ) ) ;
#171 = CALENDAR_DATE ( 2015, 4, 12 ) ;
#172 =( CONVERSION_BASED_UNIT ( 'INCH', #63 ) LENGTH_UNIT ( ) NAMED_UNIT ( #238 ) );
#173 = DATE_TIME_ROLE ( 'classification_date' ) ;
#174 =( GEOMETRIC_REPRESENTATION_CONTEXT ( 3 ) GLOBAL_UNCERTAINTY_ASSIGNED_CONTEXT ( ( #89 ) ) GLOBAL_UNIT_ASSIGNED_CONTEXT ( ( #172, #181, #91 ) ) REPRESENTATION_CONTEXT ( 'NONE', 'WORKASPACE' ) );
#175 = CARTESIAN_POINT ( 'NONE',  ( 5.177321619498656900, 0.9127246785962448400, 1.603111386230650700 ) ) ;
#176 = VERTEX_POINT ( 'NONE', #280 ) ;
#177 = CARTESIAN_POINT ( 'NONE',  ( 4.251968503937022500, 1.019808457922776900, -1.791193542815924200 ) ) ;
#178 = AXIS2_PLACEMENT_3D ( 'NONE', #284, #20, #183 ) ;
#179 = FACE_OUTER_BOUND ( 'NONE', #57, .T. ) ;
#180 = CC_DESIGN_PERSON_AND_ORGANIZATION_ASSIGNMENT ( #34, #94, ( #142 ) ) ;
#181 =( NAMED_UNIT ( * ) PLANE_ANGLE_UNIT ( ) SI_UNIT ( $, .RADIAN. ) );
#182 = PLANE ( 'NONE',  #118 ) ;
#183 = DIRECTION ( 'NONE',  ( -1.504752176709078700E-028, -1.504657806141803700E-028, 1.000000000000000000 ) ) ;
#184 = FACE_OUTER_BOUND ( 'NONE', #295, .T. ) ;
#185 = CARTESIAN_POINT ( 'NONE',  ( 4.840317033457155900, 2.165354330708703800, 1.287474827086035900 ) ) ;
#186 = ADVANCED_FACE ( 'NONE', ( #165 ), #76, .T. ) ;
#187 = DIRECTION ( 'NONE',  ( 1.504752176709078900E-028, 1.504657806141803700E-028, -1.000000000000000000 ) ) ;
#188 = CARTESIAN_POINT ( 'NONE',  ( 4.733344573544404600, -0.03339290500761312600, 1.771338813273087400 ) ) ;
#189 = DIRECTION ( 'NONE',  ( 1.000000000000000000, 0.0000000000000000000, -1.504752176709079300E-028 ) ) ;
#190 = CARTESIAN_POINT ( 'NONE',  ( 4.251968503937027000, 1.748382715945128500E-014, 0.0000000000000000000 ) ) ;
#191 = CARTESIAN_POINT ( 'NONE',  ( 2.125984251968506800, 0.0000000000000000000, 0.0000000000000000000 ) ) ;
#192 = APPROVAL_STATUS ( 'not_yet_approved' ) ;
#193 = CARTESIAN_POINT ( 'NONE',  ( 4.840317033457155900, 1.246432559683385400, -2.189236552330565000 ) ) ;
#194 = AXIS2_PLACEMENT_3D ( 'NONE', #100, #115, #164 ) ;
#195 = CARTESIAN_POINT ( 'NONE',  ( 4.840317033457155900, 2.165354330708698000, -9.162552908196575600E-015 ) ) ;
#196 = EDGE_CURVE ( 'NONE', #83, #176, #48, .T. ) ;
#197 = CARTESIAN_POINT ( 'NONE',  ( 5.177321619498656900, 1.585623161228319400, 0.9427786835505642700 ) ) ;
#198 = FACE_OUTER_BOUND ( 'NONE', #66, .T. ) ;
#199 = CIRCLE ( 'NONE', #248, 1.771653543307088100 ) ;
#200 = DIRECTION ( 'NONE',  ( 0.7071067811865469100, -0.7071067811865482400, 2.242077542919707800E-044 ) ) ;
#201 = APPROVAL_PERSON_ORGANIZATION ( #206, #274, #38 ) ;
#202 = CARTESIAN_POINT ( 'NONE',  ( 2.784282653008743200, -3.543307086614166900, -1.771653543307085200 ) ) ;
#203 = CYLINDRICAL_SURFACE ( 'NONE', #95, 1.771653543307088100 ) ;
#204 = COORDINATED_UNIVERSAL_TIME_OFFSET ( 5, 0, .BEHIND. ) ;
#205 = LOCAL_TIME ( 14, 21, 53.00000000000000000, #204 ) ;
#206 = PERSON_AND_ORGANIZATION ( #281, #249 ) ;
#207 = CC_DESIGN_APPROVAL ( #254, ( #110 ) ) ;
#208 = EDGE_CURVE ( 'NONE', #121, #121, #160, .T. ) ;
#209 = CARTESIAN_POINT ( 'NONE',  ( 8.511312500848129400, -1.753847528139899700, -3.770212590974622800E-028 ) ) ;
#210 = CARTESIAN_POINT ( 'NONE',  ( 5.795567084647324000, 1.518572618990611000, 0.9029118201696881800 ) ) ;
#211 = CARTESIAN_POINT ( 'NONE',  ( 2.665899525665693000E-028, 2.665732333715796400E-028, -1.771653543307088100 ) ) ;
#212 = PERSON_AND_ORGANIZATION_ROLE ( 'creator' ) ;
#213 = DIRECTION ( 'NONE',  ( -0.7071067811865469100, 0.7071067811865481300, 7.395570986446982400E-032 ) ) ;
#214 = DIRECTION ( 'NONE',  ( -0.7071067811865469100, 0.7071067811865481300, 4.930380657631321600E-032 ) ) ;
#215 = PERSON_AND_ORGANIZATION_ROLE ( 'creator' ) ;
#216 = SECURITY_CLASSIFICATION_LEVEL ( 'unclassified' ) ;
#217 = DIRECTION ( 'NONE',  ( 1.000000000000000000, 0.0000000000000000000, -1.504752176709079300E-028 ) ) ;
#218 = EDGE_LOOP ( 'NONE', ( #72 ) ) ;
#219 = CARTESIAN_POINT ( 'NONE',  ( 4.251968503937022500, 1.771653543307125700, -4.163708159808287300E-016 ) ) ;
#220 = EDGE_CURVE ( 'NONE', #176, #83, #1, .T. ) ;
#221 = APPROVAL_DATE_TIME ( #257, #254 ) ;
#222 = ORIENTED_EDGE ( 'NONE', *, *, #279, .F. ) ;
#223 = DIRECTION ( 'NONE',  ( 1.000000000000000000, 0.0000000000000000000, -1.504752176709079300E-028 ) ) ;
#224 = VERTEX_POINT ( 'NONE', #298 ) ;
#225 = CARTESIAN_POINT ( 'NONE',  ( 5.795567084647324000, -0.02862272446250244800, -1.518302848180239600 ) ) ;
#226 = FACE_OUTER_BOUND ( 'NONE', #17, .T. ) ;
#227 = MANIFOLD_SOLID_BREP ( '1', #168 ) ;
#228 = EDGE_CURVE ( 'NONE', #224, #235, #70, .T. ) ;
#229 = APPLICATION_CONTEXT ( 'configuration controlled 3d designs of mechanical parts and assemblies' ) ;
#230 = CARTESIAN_POINT ( 'NONE',  ( 5.177321619498656900, 0.9127246785962440700, -1.603111386230651000 ) ) ;
#231 = CARTESIAN_POINT ( 'NONE',  ( 5.755266385199767900, -1.503297881262740000, 0.0000000000000000000 ) ) ;
#232 = FACE_OUTER_BOUND ( 'NONE', #90, .T. ) ;
#233 = ADVANCED_FACE ( 'NONE', ( #179, #198 ), #297, .T. ) ;
#234 = CARTESIAN_POINT ( 'NONE',  ( 5.514912797245453500, -0.02341859274204652000, -1.242247784874736200 ) ) ;
#235 = VERTEX_POINT ( 'NONE', #272 ) ;
#236 = CIRCLE ( 'NONE', #67, 2.165354330708662500 ) ;
#237 = CARTESIAN_POINT ( 'NONE',  ( 4.251968503937027000, 2.165354330708702000, -9.162552908196575600E-015 ) ) ;
#238 = DIMENSIONAL_EXPONENTS ( 1.000000000000000000, 0.0000000000000000000, 0.0000000000000000000, 0.0000000000000000000, 0.0000000000000000000, 0.0000000000000000000, 0.0000000000000000000 ) ;
#239 = EDGE_LOOP ( 'NONE', ( #13 ) ) ;
#240 = EDGE_CURVE ( 'NONE', #123, #123, #236, .T. ) ;
#241 = CARTESIAN_POINT ( 'NONE',  ( 5.795567084647324000, 1.518572618990603500, -0.9029118201697009500 ) ) ;
#242 = CARTESIAN_POINT ( 'NONE',  ( 7.258564266462492800, -3.006595762525497800, 0.0000000000000000000 ) ) ;
#243 = APPROVAL_STATUS ( 'not_yet_approved' ) ;
#244 = ADVANCED_FACE ( 'NONE', ( #166, #69 ), #292, .T. ) ;
#245 = DIRECTION ( 'NONE',  ( 0.7071067811865482400, 0.7071067811865468000, -2.128075551350118800E-028 ) ) ;
#246 = COORDINATED_UNIVERSAL_TIME_OFFSET ( 5, 0, .BEHIND. ) ;
#247 = CARTESIAN_POINT ( 'NONE',  ( 4.840317033457155900, -0.04081355056485965600, -2.164969660667107400 ) ) ;
#248 = AXIS2_PLACEMENT_3D ( 'NONE', #2, #104, #285 ) ;
#249 = ORGANIZATION ( 'UNSPECIFIED', 'UNSPECIFIED', '' ) ;
#250 = CARTESIAN_POINT ( 'NONE',  ( 4.251968503937027000, -0.04081355056485973900, -2.164969660667111400 ) ) ;
#251 = CIRCLE ( 'NONE', #265, 1.771653543307087900 ) ;
#252 = CARTESIAN_POINT ( 'NONE',  ( 4.733344573544403700, 1.771653543307122500, -1.053388494888590300 ) ) ;
#253 = CARTESIAN_POINT ( 'NONE',  ( 2.125984251968506800, 0.0000000000000000000, 0.0000000000000000000 ) ) ;
#254 = APPROVAL ( #243, 'UNSPECIFIED' ) ;
#255 = PRODUCT_DEFINITION_SHAPE ( 'NONE', 'NONE',  #110 ) ;
#256 = ORIENTED_EDGE ( 'NONE', *, *, #283, .T. ) ;
#257 = DATE_AND_TIME ( #289, #278 ) ;
#258 = PERSON_AND_ORGANIZATION ( #281, #249 ) ;
#259 = CARTESIAN_POINT ( 'NONE',  ( 0.0000000000000000000, 0.0000000000000000000, 0.0000000000000000000 ) ) ;
#260 = CARTESIAN_POINT ( 'NONE',  ( 4.733344573544404600, -0.03339290500761396600, -1.771338813273087600 ) ) ;
#261 = PERSON_AND_ORGANIZATION ( #281, #249 ) ;
#262 = FACE_OUTER_BOUND ( 'NONE', #19, .T. ) ;
#263 = EDGE_LOOP ( 'NONE', ( #256 ) ) ;
#264 = DATE_AND_TIME ( #171, #169 ) ;
#265 = AXIS2_PLACEMENT_3D ( 'NONE', #161, #214, #35 ) ;
#266 = CC_DESIGN_DATE_AND_TIME_ASSIGNMENT ( #97, #173, ( #9 ) ) ;
#267 = APPLICATION_PROTOCOL_DEFINITION ( 'international standard', 'config_control_design', 1994, #79 ) ;
#268 = CALENDAR_DATE ( 2015, 4, 12 ) ;
#269 = ORIENTED_EDGE ( 'NONE', *, *, #6, .F. ) ;
#270 = CARTESIAN_POINT ( 'NONE',  ( 4.251968503937011900, 3.496765431890256900E-014, 0.0000000000000000000 ) ) ;
#271 = CARTESIAN_POINT ( 'NONE',  ( 4.251968503937022500, 1.771653543307125900, 1.053388494888591000 ) ) ;
#272 = CARTESIAN_POINT ( 'NONE',  ( 4.251968503937027000, 0.0000000000000000000, -1.771653543307083900 ) ) ;
#273 = COORDINATED_UNIVERSAL_TIME_OFFSET ( 5, 0, .BEHIND. ) ;
#274 = APPROVAL ( #192, 'UNSPECIFIED' ) ;
#275 = CARTESIAN_POINT ( 'NONE',  ( 4.840317033457155900, 1.246432559683403800, 2.189236552330553900 ) ) ;
#276 = MECHANICAL_CONTEXT ( 'NONE', #229, 'mechanical' ) ;
#277 = ADVANCED_FACE ( 'NONE', ( #144, #141 ), #133, .T. ) ;
#278 = LOCAL_TIME ( 14, 21, 53.00000000000000000, #75 ) ;
#279 = EDGE_CURVE ( 'NONE', #83, #176, #130, .T. ) ;
#280 = CARTESIAN_POINT ( 'NONE',  ( 4.251968503937029600, 1.748382715945128500E-014, 2.165354330708667800 ) ) ;
#281 = PERSON ( 'UNSPECIFIED', 'UNSPECIFIED', 'UNSPECIFIED', ('UNSPECIFIED'), ('UNSPECIFIED'), ('UNSPECIFIED') ) ;
#282 = PRODUCT_RELATED_PRODUCT_CATEGORY ( 'detail', '', ( #142 ) ) ;
#283 = EDGE_CURVE ( 'NONE', #124, #124, #251, .T. ) ;
#284 = CARTESIAN_POINT ( 'NONE',  ( 0.0000000000000000000, 1.082677165354307700, 0.0000000000000000000 ) ) ;
#285 = DIRECTION ( 'NONE',  ( 0.0000000000000000000, 8.881784197002765000E-016, -1.000000000000000000 ) ) ;
#286 = CC_DESIGN_APPROVAL ( #311, ( #42 ) ) ;
#287 = CARTESIAN_POINT ( 'NONE',  ( 4.251968503937027000, -0.04081355056484140700, 2.164969660667111400 ) ) ;
#288 = AXIS2_PLACEMENT_3D ( 'NONE', #190, #127, #245 ) ;
#289 = CALENDAR_DATE ( 2015, 4, 12 ) ;
#290 = CARTESIAN_POINT ( 'NONE',  ( 4.251968503937027000, 1.246432559683387400, -2.189236552330569000 ) ) ;
#291 = APPROVAL_DATE_TIME ( #310, #311 ) ;
#292 = PLANE ( 'NONE',  #178 ) ;
#293 = CALENDAR_DATE ( 2015, 4, 12 ) ;
#294 = EDGE_LOOP ( 'NONE', ( #151 ) ) ;
#295 = EDGE_LOOP ( 'NONE', ( #111 ) ) ;
#296 = AXIS2_PLACEMENT_3D ( 'NONE', #259, #114, #77 ) ;
#297 = CYLINDRICAL_SURFACE ( 'NONE', #14, 2.165354330708662500 ) ;
#298 = CARTESIAN_POINT ( 'NONE',  ( 4.251968503937022500, 0.0000000000000000000, 1.771653543307083900 ) ) ;
#299 = CARTESIAN_POINT ( 'NONE',  ( 5.755266385199767900, -1.503297881262740000, 0.0000000000000000000 ) ) ;
#300 = CARTESIAN_POINT ( 'NONE',  ( 5.382955645179019500, 1.115552384950959700, -1.959358360948571000 ) ) ;
#301 = CARTESIAN_POINT ( 'NONE',  ( 5.514912797245454400, 1.242468506446861900, 0.7387460346842973400 ) ) ;
#302 = CARTESIAN_POINT ( 'NONE',  ( 2.458130241691338200, -4.330708661417333800, 2.165354330708692200 ) ) ;
#303 = LOCAL_TIME ( 14, 21, 53.00000000000000000, #87 ) ;
#304 = CARTESIAN_POINT ( 'NONE',  ( 4.251968503937022500, 1.019808457922777500, 1.791193542815923100 ) ) ;
#305 = EDGE_LOOP ( 'NONE', ( #222, #51 ) ) ;
#306 = AXIS2_PLACEMENT_3D ( 'NONE', #139, #81, #143 ) ;
#307 = CARTESIAN_POINT ( 'NONE',  ( 5.382955645179019500, 1.937983863723501000, 1.152285057672898000 ) ) ;
#308 = CARTESIAN_POINT ( 'NONE',  ( 4.251968503937022500, 1.771653543307125200, -1.053388494888591900 ) ) ;
#309 = ORIENTED_EDGE ( 'NONE', *, *, #279, .T. ) ;
#310 = DATE_AND_TIME ( #268, #303 ) ;
#311 = APPROVAL ( #22, 'UNSPECIFIED' ) ;
#312 = DATE_AND_TIME ( #33, #149 ) ;
ENDSEC;
END-ISO-10303-21;
