ISO-10303-21;
HEADER;
FILE_DESCRIPTION (( 'STEP AP203' ),
    '1' );
FILE_NAME ('581244030.STEP',
    '2015-12-04T19:19:51',
    ( '' ),
    ( '' ),
    'SwSTEP 2.0',
    'SolidWorks 2015',
    '' );
FILE_SCHEMA (( 'CONFIG_CONTROL_DESIGN' ));
ENDSEC;

DATA;
#1 = EDGE_CURVE ( 'NONE', #8, #125, #94, .T. ) ;
#2 = CC_DESIGN_APPROVAL ( #118, ( #63 ) ) ;
#3 = FACE_OUTER_BOUND ( 'NONE', #306, .T. ) ;
#4 = DATE_AND_TIME ( #5, #91 ) ;
#5 = CALENDAR_DATE ( 2015, 4, 12 ) ;
#6 = ADVANCED_FACE ( 'NONE', ( #179, #214 ), #55, .F. ) ;
#7 = AXIS2_PLACEMENT_3D ( 'NONE', #169, #295, #33 ) ;
#8 = VERTEX_POINT ( 'NONE', #293 ) ;
#9 = CARTESIAN_POINT ( 'NONE',  ( 8.014198220120713100, -1.870770696682551000, 1.781528682486129200E-014 ) ) ;
#10 = AXIS2_PLACEMENT_3D ( 'NONE', #270, #17, #134 ) ;
#11 = ORIENTED_EDGE ( 'NONE', *, *, #80, .F. ) ;
#12 = CYLINDRICAL_SURFACE ( 'NONE', #7, 1.771653543307082100 ) ;
#13 = EDGE_LOOP ( 'NONE', ( #241 ) ) ;
#14 = EDGE_LOOP ( 'NONE', ( #303, #168 ) ) ;
#15 = DIRECTION ( 'NONE',  ( 1.000000000000000000, -1.387778780781439800E-015, 4.440890907360525300E-016 ) ) ;
#16 = FACE_OUTER_BOUND ( 'NONE', #124, .T. ) ;
#17 = DIRECTION ( 'NONE',  ( -0.7071067811865472400, 0.7071067811865476800, -2.397971317151697300E-016 ) ) ;
#18 = ORIENTED_EDGE ( 'NONE', *, *, #90, .F. ) ;
#19 = DIRECTION ( 'NONE',  ( 0.7071067811865485700, 0.7071067811865465700, 2.287792255819075700E-016 ) ) ;
#20 = CARTESIAN_POINT ( 'NONE',  ( 5.127295966615286600, 1.016063134160973800, 0.6041300905864661600 ) ) ;
#21 = DIRECTION ( 'NONE',  ( 0.7071067811865473500, -0.7071067811865477900, 2.397971317151697700E-016 ) ) ;
#22 = CC_DESIGN_APPROVAL ( #191, ( #253 ) ) ;
#23 = CIRCLE ( 'NONE', #10, 1.771653543307088600 ) ;
#24 = VERTEX_POINT ( 'NONE', #9 ) ;
#25 = ORIENTED_EDGE ( 'NONE', *, *, #1, .F. ) ;
#26 = EDGE_CURVE ( 'NONE', #8, #125, #210, .T. ) ;
#27 = CARTESIAN_POINT ( 'NONE',  ( 4.094488188976366200, 1.771653543307099700, 1.933069002191292400E-013 ) ) ;
#28 = CARTESIAN_POINT ( 'NONE',  ( 5.357432482284825600, 0.7151962054679837900, 1.256171994974709700 ) ) ;
#29 = DIRECTION ( 'NONE',  ( -1.000000000000000000, 1.387778780781439800E-015, -1.665334536937735100E-016 ) ) ;
#30 =( BOUNDED_SURFACE ( )  B_SPLINE_SURFACE ( 3, 3, ( 
 ( #147, #120, #100, #185, #20, #85, #304 ),
 ( #190, #234, #235, #302, #64, #59, #154 ),
 ( #57, #203, #74, #223, #79, #242, #88 ),
 ( #83, #294, #78, #180, #174, #70, #252 ) ),
 .UNSPECIFIED., .F., .F., .F. ) 
 B_SPLINE_SURFACE_WITH_KNOTS ( ( 4, 4 ),
 ( 4, 3, 4 ),
 ( 0.0000000000000000000, 1.000000000000000000 ),
 ( 0.0000000000000000000, 0.5000000000000000000, 1.000000000000000000 ),
 .UNSPECIFIED. ) 
 GEOMETRIC_REPRESENTATION_ITEM ( )  RATIONAL_B_SPLINE_SURFACE ( (
 ( 1.000000000000000000, 0.8002741005225386700, 0.8002741005225386700, 1.000000000000000000, 0.8002741005225386700, 0.8002741005225386700, 1.000000000000000000),
 ( 0.9482053969659241000, 0.7588242211675215700, 0.7588242211675215700, 0.9482053969659241000, 0.7588242211675215700, 0.7588242211675215700, 0.9482053969659241000),
 ( 0.9482053969659241000, 0.7588242211675215700, 0.7588242211675215700, 0.9482053969659241000, 0.7588242211675215700, 0.7588242211675215700, 0.9482053969659241000),
 ( 1.000000000000000000, 0.8002741005225386700, 0.8002741005225386700, 1.000000000000000000, 0.8002741005225386700, 0.8002741005225386700, 1.000000000000000000) ) ) 
 REPRESENTATION_ITEM ( '' )  SURFACE ( )  );
#31 = AXIS2_PLACEMENT_3D ( 'NONE', #264, #277, #149 ) ;
#32 = DIMENSIONAL_EXPONENTS ( 1.000000000000000000, 0.0000000000000000000, 0.0000000000000000000, 0.0000000000000000000, 0.0000000000000000000, 0.0000000000000000000, 0.0000000000000000000 ) ;
#33 = DIRECTION ( 'NONE',  ( 1.541976423090499100E-016, 2.775557561562899700E-016, -1.000000000000000000 ) ) ;
#34 = DIRECTION ( 'NONE',  ( 1.665334536937739000E-016, 2.775557561562898300E-016, -1.000000000000000000 ) ) ;
#35 = ORIENTED_EDGE ( 'NONE', *, *, #140, .F. ) ;
#36 = CYLINDRICAL_SURFACE ( 'NONE', #256, 1.771653543307088600 ) ;
#37 = DIRECTION ( 'NONE',  ( 1.000000000000000000, 0.0000000000000000000, 0.0000000000000000000 ) ) ;
#38 =( NAMED_UNIT ( * ) PLANE_ANGLE_UNIT ( ) SI_UNIT ( $, .RADIAN. ) );
#39 = FACE_BOUND ( 'NONE', #97, .T. ) ;
#40 = CIRCLE ( 'NONE', #257, 1.448818897637791800 ) ;
#41 = CC_DESIGN_SECURITY_CLASSIFICATION ( #201, ( #253 ) ) ;
#42 = CARTESIAN_POINT ( 'NONE',  ( 5.357432482284825600, 1.242468506446846400, -0.7387460346841134800 ) ) ;
#43 = CARTESIAN_POINT ( 'NONE',  ( 5.019841304538015700, 0.9127246785962298500, 1.603111386230862600 ) ) ;
#44 = CARTESIAN_POINT ( 'NONE',  ( 5.019841304538018400, 0.9127246785962316300, -1.603111386230475600 ) ) ;
#45 = AXIS2_PLACEMENT_3D ( 'NONE', #251, #243, #56 ) ;
#46 =( BOUNDED_SURFACE ( )  B_SPLINE_SURFACE ( 3, 3, ( 
 ( #199, #220, #42, #155, #289, #28, #103 ),
 ( #254, #44, #109, #231, #184, #43, #266 ),
 ( #305, #150, #197, #259, #112, #156, #153 ),
 ( #121, #86, #290, #27, #296, #229, #298 ) ),
 .UNSPECIFIED., .F., .F., .F. ) 
 B_SPLINE_SURFACE_WITH_KNOTS ( ( 4, 4 ),
 ( 4, 3, 4 ),
 ( 0.0000000000000000000, 1.000000000000000000 ),
 ( 0.0000000000000000000, 0.5000000000000000000, 1.000000000000000000 ),
 .UNSPECIFIED. ) 
 GEOMETRIC_REPRESENTATION_ITEM ( )  RATIONAL_B_SPLINE_SURFACE ( (
 ( 1.000000000000000000, 0.8002741005225372200, 0.8002741005225372200, 1.000000000000000000, 0.8002741005225372200, 0.8002741005225372200, 1.000000000000000000),
 ( 0.9482053969659229900, 0.7588242211675193500, 0.7588242211675193500, 0.9482053969659229900, 0.7588242211675193500, 0.7588242211675193500, 0.9482053969659229900),
 ( 0.9482053969659229900, 0.7588242211675193500, 0.7588242211675193500, 0.9482053969659229900, 0.7588242211675193500, 0.7588242211675193500, 0.9482053969659229900),
 ( 1.000000000000000000, 0.8002741005225372200, 0.8002741005225372200, 1.000000000000000000, 0.8002741005225372200, 0.8002741005225372200, 1.000000000000000000) ) ) 
 REPRESENTATION_ITEM ( '' )  SURFACE ( )  );
#47 = FACE_BOUND ( 'NONE', #131, .T. ) ;
#48 = CIRCLE ( 'NONE', #45, 1.448818897637796900 ) ;
#49 = CIRCLE ( 'NONE', #245, 1.771653543307082100 ) ;
#50 = FACE_OUTER_BOUND ( 'NONE', #13, .T. ) ;
#51 = FACE_OUTER_BOUND ( 'NONE', #283, .T. ) ;
#52 = CIRCLE ( 'NONE', #281, 1.448818897637791800 ) ;
#53 = EDGE_LOOP ( 'NONE', ( #11, #285 ) ) ;
#54 = CARTESIAN_POINT ( 'NONE',  ( 8.242476787275460700, -1.642492129527860700, 1.788914468508852500E-014 ) ) ;
#55 = CYLINDRICAL_SURFACE ( 'NONE', #275, 1.448818897637791800 ) ;
#56 = DIRECTION ( 'NONE',  ( 0.7071067811865483500, 0.7071067811865465700, 2.287792255819075200E-016 ) ) ;
#57 = CARTESIAN_POINT ( 'NONE',  ( 4.488146841455309400, -0.02730797565067967200, -1.448561518409821300 ) ) ;
#58 = VERTEX_POINT ( 'NONE', #267 ) ;
#59 = CARTESIAN_POINT ( 'NONE',  ( 4.851221403480122900, 0.7464059593853636900, 1.310988866962153200 ) ) ;
#60 = FACE_OUTER_BOUND ( 'NONE', #193, .T. ) ;
#61 = FACE_OUTER_BOUND ( 'NONE', #175, .T. ) ;
#62 = SHAPE_DEFINITION_REPRESENTATION ( #76, #236 ) ;
#63 = PRODUCT_DEFINITION ( 'UNKNOWN', '', #253, #217 ) ;
#64 = CARTESIAN_POINT ( 'NONE',  ( 4.851221403480122900, 1.296687385182253100, 0.7709834567704306800 ) ) ;
#65 = CIRCLE ( 'NONE', #132, 1.448818897637796700 ) ;
#66 = PERSON_AND_ORGANIZATION_ROLE ( 'design_supplier' ) ;
#67 = AXIS2_PLACEMENT_3D ( 'NONE', #274, #145, #37 ) ;
#68 = VERTEX_POINT ( 'NONE', #276 ) ;
#69 = CARTESIAN_POINT ( 'NONE',  ( 7.616102670082620200, -2.268866246720632900, 1.748382715945128500E-014 ) ) ;
#70 = CARTESIAN_POINT ( 'NONE',  ( 4.094488188976380400, 0.8339766944790607500, 1.464798275014100400 ) ) ;
#71 = VERTEX_POINT ( 'NONE', #148 ) ;
#72 = EDGE_LOOP ( 'NONE', ( #142, #35 ) ) ;
#73 = ADVANCED_FACE ( 'NONE', ( #194 ), #46, .T. ) ;
#74 = CARTESIAN_POINT ( 'NONE',  ( 4.488146841455311200, 1.448818897637803400, -0.8614377024864743300 ) ) ;
#75 = FACE_OUTER_BOUND ( 'NONE', #53, .T. ) ;
#76 = PRODUCT_DEFINITION_SHAPE ( 'NONE', 'NONE',  #63 ) ;
#77 = APPROVAL_ROLE ( '' ) ;
#78 = CARTESIAN_POINT ( 'NONE',  ( 4.094488188976382200, 1.448818897637802700, -0.8614377024864737800 ) ) ;
#79 = CARTESIAN_POINT ( 'NONE',  ( 4.488146841455309400, 1.448818897637805600, 0.8614377024868558100 ) ) ;
#80 = EDGE_CURVE ( 'NONE', #68, #278, #65, .T. ) ;
#81 = EDGE_LOOP ( 'NONE', ( #206 ) ) ;
#82 = DATE_TIME_ROLE ( 'classification_date' ) ;
#83 = CARTESIAN_POINT ( 'NONE',  ( 4.094488188976381300, -0.02730797565067910300, -1.448561518409820200 ) ) ;
#84 = EDGE_CURVE ( 'NONE', #24, #24, #48, .T. ) ;
#85 = CARTESIAN_POINT ( 'NONE',  ( 5.127295966615286600, 0.5848715635827094200, 1.027269542557125700 ) ) ;
#86 = CARTESIAN_POINT ( 'NONE',  ( 4.094488188976366200, 1.019808457922760000, -1.791193542815734000 ) ) ;
#87 = FACE_OUTER_BOUND ( 'NONE', #81, .T. ) ;
#88 = CARTESIAN_POINT ( 'NONE',  ( 4.488146841455308500, -0.02730797565067616700, 1.448561518410206500 ) ) ;
#89 = CARTESIAN_POINT ( 'NONE',  ( 4.094488188976401800, -5.463695987328526400E-015, 1.448818897637967900 ) ) ;
#90 = EDGE_CURVE ( 'NONE', #240, #240, #23, .T. ) ;
#91 = LOCAL_TIME ( 14, 19, 51.00000000000000000, #133 ) ;
#92 = PLANE ( 'NONE',  #228 ) ;
#93 = CARTESIAN_POINT ( 'NONE',  ( 4.094488188976373300, -1.857656635691699100E-014, 1.771653543307258700 ) ) ;
#94 = CIRCLE ( 'NONE', #282, 1.771653543307090400 ) ;
#95 = COORDINATED_UNIVERSAL_TIME_OFFSET ( 5, 0, .BEHIND. ) ;
#96 = ADVANCED_FACE ( 'NONE', ( #61 ), #30, .F. ) ;
#97 = EDGE_LOOP ( 'NONE', ( #272 ) ) ;
#98 = DIRECTION ( 'NONE',  ( 0.7071067811865485700, 0.7071067811865465700, 2.287792255819075700E-016 ) ) ;
#99 = MECHANICAL_CONTEXT ( 'NONE', #279, 'mechanical' ) ;
#100 = CARTESIAN_POINT ( 'NONE',  ( 5.127295966615286600, 1.016063134160972500, -0.6041300905860829100 ) ) ;
#101 = CARTESIAN_POINT ( 'NONE',  ( 4.094488188976381300, -2.185478394931410600E-015, -1.448818897637443400 ) ) ;
#102 = CARTESIAN_POINT ( 'NONE',  ( 2.626802338048085200, -3.543307086614191800, 1.771653543307270000 ) ) ;
#103 = CARTESIAN_POINT ( 'NONE',  ( 5.357432482284823800, -0.02341859274207476500, 1.242247784874963600 ) ) ;
#104 = DATE_AND_TIME ( #310, #244 ) ;
#105 = PERSON_AND_ORGANIZATION ( #116, #167 ) ;
#106 = DATE_AND_TIME ( #126, #123 ) ;
#107 = COORDINATED_UNIVERSAL_TIME_OFFSET ( 5, 0, .BEHIND. ) ;
#108 = APPROVAL_DATE_TIME ( #106, #118 ) ;
#109 = CARTESIAN_POINT ( 'NONE',  ( 5.019841304538018400, 1.585623161228305400, -0.9427786835503783000 ) ) ;
#110 = PERSON_AND_ORGANIZATION ( #116, #167 ) ;
#111 = DIRECTION ( 'NONE',  ( 0.7071067811865465700, -0.7071067811865485700, 2.397971317151695300E-016 ) ) ;
#112 = CARTESIAN_POINT ( 'NONE',  ( 4.575864258583754600, 1.771653543307104800, 1.053388494888786400 ) ) ;
#113 = APPROVAL_DATE_TIME ( #237, #191 ) ;
#114 = CARTESIAN_POINT ( 'NONE',  ( 4.094488188976364500, 5.463695987328526400E-015, -1.771653543306734200 ) ) ;
#115 = LENGTH_MEASURE_WITH_UNIT ( LENGTH_MEASURE( 0.02539999999999999900 ), #232 );
#116 = PERSON ( 'UNSPECIFIED', 'UNSPECIFIED', 'UNSPECIFIED', ('UNSPECIFIED'), ('UNSPECIFIED'), ('UNSPECIFIED') ) ;
#117 = APPROVAL_PERSON_ORGANIZATION ( #110, #118, #204 ) ;
#118 = APPROVAL ( #255, 'UNSPECIFIED' ) ;
#119 = CARTESIAN_POINT ( 'NONE',  ( 4.094488188976373300, -1.857656635691699100E-014, 1.771653543307258700 ) ) ;
#120 = CARTESIAN_POINT ( 'NONE',  ( 5.127295966615286600, 0.5848715635827067500, -1.027269542556741100 ) ) ;
#121 = CARTESIAN_POINT ( 'NONE',  ( 4.094488188976364500, -0.03339290500762884900, -1.771338813272920400 ) ) ;
#122 = DIRECTION ( 'NONE',  ( 0.7071067811865473500, -0.7071067811865477900, 2.397971317151697700E-016 ) ) ;
#123 = LOCAL_TIME ( 14, 19, 51.00000000000000000, #163 ) ;
#124 = EDGE_LOOP ( 'NONE', ( #181, #207 ) ) ;
#125 = VERTEX_POINT ( 'NONE', #119 ) ;
#126 = CALENDAR_DATE ( 2015, 4, 12 ) ;
#127 = DIRECTION ( 'NONE',  ( 1.885568995626968700E-016, 2.775557561562900700E-016, -1.000000000000000000 ) ) ;
#128 = CARTESIAN_POINT ( 'NONE',  ( 2.626802338048094500, -3.543307086614174900, -1.771653543306920000 ) ) ;
#129 = APPROVAL_PERSON_ORGANIZATION ( #105, #191, #215 ) ;
#130 = CALENDAR_DATE ( 2015, 4, 12 ) ;
#131 = EDGE_LOOP ( 'NONE', ( #166 ) ) ;
#132 = AXIS2_PLACEMENT_3D ( 'NONE', #212, #159, #198 ) ;
#133 = COORDINATED_UNIVERSAL_TIME_OFFSET ( 5, 0, .BEHIND. ) ;
#134 = DIRECTION ( 'NONE',  ( 0.7071067811865485700, 0.7071067811865465700, 2.287792255819080600E-016 ) ) ;
#135 = DIRECTION ( 'NONE',  ( -1.665334536937739000E-016, -2.775557561562898300E-016, 1.000000000000000000 ) ) ;
#136 = APPLICATION_PROTOCOL_DEFINITION ( 'international standard', 'config_control_design', 1994, #178 ) ;
#137 = DIRECTION ( 'NONE',  ( -1.000000000000000000, 1.387778780781439800E-015, -4.440890907360525300E-016 ) ) ;
#138 = CC_DESIGN_DATE_AND_TIME_ASSIGNMENT ( #269, #82, ( #201 ) ) ;
#139 = LOCAL_TIME ( 14, 19, 51.00000000000000000, #95 ) ;
#140 = EDGE_CURVE ( 'NONE', #278, #68, #52, .T. ) ;
#141 = APPLICATION_PROTOCOL_DEFINITION ( 'international standard', 'config_control_design', 1994, #279 ) ;
#142 = ORIENTED_EDGE ( 'NONE', *, *, #219, .T. ) ;
#143 = PERSON_AND_ORGANIZATION_ROLE ( 'design_owner' ) ;
#144 = PERSON_AND_ORGANIZATION ( #116, #167 ) ;
#145 = DIRECTION ( 'NONE',  ( 0.0000000000000000000, 0.0000000000000000000, 1.000000000000000000 ) ) ;
#146 = CARTESIAN_POINT ( 'NONE',  ( 5.542108370933100900, -1.447620181956734700, 0.0000000000000000000 ) ) ;
#147 = CARTESIAN_POINT ( 'NONE',  ( 5.127295966615286600, -0.01915120473129344700, -1.015882632964063800 ) ) ;
#148 = CARTESIAN_POINT ( 'NONE',  ( 2.412768148004277400E-016, 4.021280246673795600E-016, -1.448818897637791800 ) ) ;
#149 = DIRECTION ( 'NONE',  ( 0.7071067811865485700, 0.7071067811865465700, 2.287792255818992900E-016 ) ) ;
#150 = CARTESIAN_POINT ( 'NONE',  ( 4.575864258583754600, 1.019808457922762600, -1.791193542815740400 ) ) ;
#151 = CARTESIAN_POINT ( 'NONE',  ( 4.094488188976401800, -5.463695987328526400E-015, 1.448818897637967900 ) ) ;
#152 = CC_DESIGN_DATE_AND_TIME_ASSIGNMENT ( #104, #186, ( #63 ) ) ;
#153 = CARTESIAN_POINT ( 'NONE',  ( 4.575864258583752800, -0.03339290500763159700, 1.771338813273311900 ) ) ;
#154 = CARTESIAN_POINT ( 'NONE',  ( 4.851221403480121100, -0.02444053400934516700, 1.296457031755646700 ) ) ;
#155 = CARTESIAN_POINT ( 'NONE',  ( 5.357432482284825600, 1.242468506446845700, 1.935672794810253900E-013 ) ) ;
#156 = CARTESIAN_POINT ( 'NONE',  ( 4.575864258583753700, 1.019808457922761100, 1.791193542816127000 ) ) ;
#157 = PRODUCT ( '581244030', '581244030', '', ( #99 ) ) ;
#158 = ADVANCED_FACE ( 'NONE', ( #211, #75 ), #271, .F. ) ;
#159 = DIRECTION ( 'NONE',  ( 0.7071067811865472400, -0.7071067811865476800, 2.397971317151697300E-016 ) ) ;
#160 = ADVANCED_FACE ( 'NONE', ( #3, #47 ), #92, .T. ) ;
#161 = CLOSED_SHELL ( 'NONE', ( #227, #73, #183, #160, #262, #158, #6, #96 ) ) ;
#162 = ORIENTED_EDGE ( 'NONE', *, *, #239, .F. ) ;
#163 = COORDINATED_UNIVERSAL_TIME_OFFSET ( 5, 0, .BEHIND. ) ;
#164 = PERSON_AND_ORGANIZATION ( #116, #167 ) ;
#165 = APPROVAL_STATUS ( 'not_yet_approved' ) ;
#166 = ORIENTED_EDGE ( 'NONE', *, *, #84, .T. ) ;
#167 = ORGANIZATION ( 'UNSPECIFIED', 'UNSPECIFIED', '' ) ;
#168 = ORIENTED_EDGE ( 'NONE', *, *, #1, .T. ) ;
#169 = CARTESIAN_POINT ( 'NONE',  ( 2.047244094488225800, -7.649174382259936200E-015, 1.748382715945128500E-013 ) ) ;
#170 = PERSON_AND_ORGANIZATION ( #116, #167 ) ;
#171 =( CONVERSION_BASED_UNIT ( 'INCH', #115 ) LENGTH_UNIT ( ) NAMED_UNIT ( #32 ) );
#172 = EDGE_LOOP ( 'NONE', ( #292 ) ) ;
#173 = CC_DESIGN_PERSON_AND_ORGANIZATION_ASSIGNMENT ( #225, #66, ( #253 ) ) ;
#174 = CARTESIAN_POINT ( 'NONE',  ( 4.094488188976382200, 1.448818897637804900, 0.8614377024868549200 ) ) ;
#175 = EDGE_LOOP ( 'NONE', ( #224, #280 ) ) ;
#176 = CARTESIAN_POINT ( 'NONE',  ( 2.894247315328344800, -2.897637795275626300, 1.448818897638018300 ) ) ;
#177 = DIRECTION ( 'NONE',  ( 1.665334536937739000E-016, 2.775557561562898300E-016, -1.000000000000000000 ) ) ;
#178 = APPLICATION_CONTEXT ( 'configuration controlled 3d designs of mechanical parts and assemblies' ) ;
#179 = FACE_OUTER_BOUND ( 'NONE', #196, .T. ) ;
#180 = CARTESIAN_POINT ( 'NONE',  ( 4.094488188976383100, 1.448818897637803800, 1.905622466879934700E-013 ) ) ;
#181 = ORIENTED_EDGE ( 'NONE', *, *, #300, .T. ) ;
#182 = SECURITY_CLASSIFICATION_LEVEL ( 'unclassified' ) ;
#183 = ADVANCED_FACE ( 'NONE', ( #51, #60 ), #12, .T. ) ;
#184 = CARTESIAN_POINT ( 'NONE',  ( 5.019841304538018400, 1.585623161228304300, 0.9427786835507655500 ) ) ;
#185 = CARTESIAN_POINT ( 'NONE',  ( 5.127295966615287500, 1.016063134160973400, 1.915397360482264700E-013 ) ) ;
#186 = DATE_TIME_ROLE ( 'creation_date' ) ;
#187 = AXIS2_PLACEMENT_3D ( 'NONE', #248, #29, #135 ) ;
#188 = APPROVAL_STATUS ( 'not_yet_approved' ) ;
#189 = CC_DESIGN_PERSON_AND_ORGANIZATION_ASSIGNMENT ( #164, #143, ( #157 ) ) ;
#190 = CARTESIAN_POINT ( 'NONE',  ( 4.851221403480122900, -0.02444053400934832100, -1.296457031755261100 ) ) ;
#191 = APPROVAL ( #165, 'UNSPECIFIED' ) ;
#192 = EDGE_CURVE ( 'NONE', #58, #58, #49, .T. ) ;
#193 = EDGE_LOOP ( 'NONE', ( #246 ) ) ;
#194 = FACE_OUTER_BOUND ( 'NONE', #14, .T. ) ;
#195 = CARTESIAN_POINT ( 'NONE',  ( 5.542108370933100900, -1.447620181956734700, 0.0000000000000000000 ) ) ;
#196 = EDGE_LOOP ( 'NONE', ( #162 ) ) ;
#197 = CARTESIAN_POINT ( 'NONE',  ( 4.575864258583755500, 1.771653543307105900, -1.053388494888399100 ) ) ;
#198 = DIRECTION ( 'NONE',  ( 0.7071067811865484600, 0.7071067811865464600, 2.287792255818968200E-016 ) ) ;
#199 = CARTESIAN_POINT ( 'NONE',  ( 5.357432482284824700, -0.02341859274207339400, -1.242247784874577900 ) ) ;
#200 = DIRECTION ( 'NONE',  ( 0.0000000000000000000, 2.775557561562900700E-016, -1.000000000000000000 ) ) ;
#201 = SECURITY_CLASSIFICATION ( '', '', #182 ) ;
#202 =( BOUNDED_CURVE ( )  B_SPLINE_CURVE ( 3, ( #89, #176, #221, #101 ),
 .UNSPECIFIED., .F., .F. ) 
 B_SPLINE_CURVE_WITH_KNOTS ( ( 4, 4 ),
 ( 1.570796326794889900, 4.712388980384693200 ),
 .UNSPECIFIED. ) 
 CURVE ( )  GEOMETRIC_REPRESENTATION_ITEM ( )  RATIONAL_B_SPLINE_CURVE ( ( 1.000000000000000000, 0.3333333333333299300, 0.3333333333333299300, 1.000000000000000000 ) ) 
 REPRESENTATION_ITEM ( '' )  );
#203 = CARTESIAN_POINT ( 'NONE',  ( 4.488146841455310300, 0.8339766944790573100, -1.464798275013718500 ) ) ;
#204 = APPROVAL_ROLE ( '' ) ;
#205 = DIRECTION ( 'NONE',  ( 1.000000000000000000, -1.387778780781439800E-015, 4.440890907360525300E-016 ) ) ;
#206 = ORIENTED_EDGE ( 'NONE', *, *, #90, .T. ) ;
#207 = ORIENTED_EDGE ( 'NONE', *, *, #26, .T. ) ;
#208 = CARTESIAN_POINT ( 'NONE',  ( 4.094488188976385800, -1.311287036958846300E-014, 1.923220987539641200E-013 ) ) ;
#209 = CALENDAR_DATE ( 2015, 4, 12 ) ;
#210 = CIRCLE ( 'NONE', #31, 1.771653543307088600 ) ;
#211 = FACE_OUTER_BOUND ( 'NONE', #172, .T. ) ;
#212 = CARTESIAN_POINT ( 'NONE',  ( 4.094488188976385800, -1.311287036958846300E-014, 1.923220987539641200E-013 ) ) ;
#213 = CC_DESIGN_PERSON_AND_ORGANIZATION_ASSIGNMENT ( #144, #287, ( #253 ) ) ;
#214 = FACE_OUTER_BOUND ( 'NONE', #72, .T. ) ;
#215 = APPROVAL_ROLE ( '' ) ;
#216 = MANIFOLD_SOLID_BREP ( '1', #161 ) ;
#217 = DESIGN_CONTEXT ( 'detailed design', #178, 'design' ) ;
#218 = PERSON_AND_ORGANIZATION_ROLE ( 'creator' ) ;
#219 = EDGE_CURVE ( 'NONE', #278, #68, #202, .T. ) ;
#220 = CARTESIAN_POINT ( 'NONE',  ( 5.357432482284825600, 0.7151962054679852400, -1.256171994974322900 ) ) ;
#221 = CARTESIAN_POINT ( 'NONE',  ( 2.894247315328344300, -2.897637795275631100, -1.448818897637623900 ) ) ;
#222 = PRODUCT_RELATED_PRODUCT_CATEGORY ( 'detail', '', ( #157 ) ) ;
#223 = CARTESIAN_POINT ( 'NONE',  ( 4.488146841455310300, 1.448818897637804700, 1.907415242125777000E-013 ) ) ;
#224 = ORIENTED_EDGE ( 'NONE', *, *, #80, .T. ) ;
#225 = PERSON_AND_ORGANIZATION ( #116, #167 ) ;
#226 = APPROVAL_PERSON_ORGANIZATION ( #291, #260, #77 ) ;
#227 = ADVANCED_FACE ( 'NONE', ( #87, #16 ), #36, .T. ) ;
#228 = AXIS2_PLACEMENT_3D ( 'NONE', #69, #111, #98 ) ;
#229 = CARTESIAN_POINT ( 'NONE',  ( 4.094488188976363600, 1.019808457922758400, 1.791193542816120300 ) ) ;
#230 = PERSON_AND_ORGANIZATION_ROLE ( 'classification_officer' ) ;
#231 = CARTESIAN_POINT ( 'NONE',  ( 5.019841304538018400, 1.585623161228304500, 1.936099646059263600E-013 ) ) ;
#232 =( LENGTH_UNIT ( ) NAMED_UNIT ( * ) SI_UNIT ( $, .METRE. ) );
#233 = CC_DESIGN_PERSON_AND_ORGANIZATION_ASSIGNMENT ( #249, #230, ( #201 ) ) ;
#234 = CARTESIAN_POINT ( 'NONE',  ( 4.851221403480123800, 0.7464059593853600300, -1.310988866961769500 ) ) ;
#235 = CARTESIAN_POINT ( 'NONE',  ( 4.851221403480124600, 1.296687385182251400, -0.7709834567700483100 ) ) ;
#236 = ADVANCED_BREP_SHAPE_REPRESENTATION ( '581244030', ( #216, #67 ), #284 ) ;
#237 = DATE_AND_TIME ( #130, #139 ) ;
#238 = CC_DESIGN_PERSON_AND_ORGANIZATION_ASSIGNMENT ( #170, #218, ( #63 ) ) ;
#239 = EDGE_CURVE ( 'NONE', #71, #71, #40, .T. ) ;
#240 = VERTEX_POINT ( 'NONE', #54 ) ;
#241 = ORIENTED_EDGE ( 'NONE', *, *, #192, .F. ) ;
#242 = CARTESIAN_POINT ( 'NONE',  ( 4.488146841455308500, 0.8339766944790609800, 1.464798275014101500 ) ) ;
#243 = DIRECTION ( 'NONE',  ( -0.7071067811865472400, 0.7071067811865476800, -2.397971317151697300E-016 ) ) ;
#244 = LOCAL_TIME ( 14, 19, 51.00000000000000000, #107 ) ;
#245 = AXIS2_PLACEMENT_3D ( 'NONE', #307, #301, #177 ) ;
#246 = ORIENTED_EDGE ( 'NONE', *, *, #192, .T. ) ;
#247 = DIRECTION ( 'NONE',  ( 0.7071067811865484600, 0.7071067811865464600, 2.287792255819075700E-016 ) ) ;
#248 = CARTESIAN_POINT ( 'NONE',  ( 0.0000000000000000000, 0.8858267716535386200, 1.573544444350615700E-013 ) ) ;
#249 = PERSON_AND_ORGANIZATION ( #116, #167 ) ;
#250 = CARTESIAN_POINT ( 'NONE',  ( 4.094488188976385800, -1.311287036958846300E-014, 1.923220987539641200E-013 ) ) ;
#251 = CARTESIAN_POINT ( 'NONE',  ( 6.989728552889807200, -2.895240363913454300, 1.748382715945128500E-014 ) ) ;
#252 = CARTESIAN_POINT ( 'NONE',  ( 4.094488188976380400, -0.02730797565067558500, 1.448561518410205400 ) ) ;
#253 = PRODUCT_DEFINITION_FORMATION_WITH_SPECIFIED_SOURCE ( 'ANY', '', #157, .NOT_KNOWN. ) ;
#254 = CARTESIAN_POINT ( 'NONE',  ( 5.019841304538015700, -0.02988652256578340500, -1.585341479048599600 ) ) ;
#255 = APPROVAL_STATUS ( 'not_yet_approved' ) ;
#256 = AXIS2_PLACEMENT_3D ( 'NONE', #146, #21, #19 ) ;
#257 = AXIS2_PLACEMENT_3D ( 'NONE', #268, #15, #34 ) ;
#258 = COORDINATED_UNIVERSAL_TIME_OFFSET ( 5, 0, .BEHIND. ) ;
#259 = CARTESIAN_POINT ( 'NONE',  ( 4.575864258583754600, 1.771653543307105200, 1.935160573311441300E-013 ) ) ;
#260 = APPROVAL ( #188, 'UNSPECIFIED' ) ;
#261 =( BOUNDED_CURVE ( )  B_SPLINE_CURVE ( 3, ( #93, #102, #128, #114 ),
 .UNSPECIFIED., .F., .F. ) 
 B_SPLINE_CURVE_WITH_KNOTS ( ( 4, 4 ),
 ( 1.570796326794903000, 4.712388980384693200 ),
 .UNSPECIFIED. ) 
 CURVE ( )  GEOMETRIC_REPRESENTATION_ITEM ( )  RATIONAL_B_SPLINE_CURVE ( ( 1.000000000000000000, 0.3333333333333342600, 0.3333333333333342600, 1.000000000000000000 ) ) 
 REPRESENTATION_ITEM ( '' )  );
#262 = ADVANCED_FACE ( 'NONE', ( #50, #39 ), #312, .T. ) ;
#263 = DIRECTION ( 'NONE',  ( 1.000000000000000000, -1.387778780781439800E-015, 4.440890907360525300E-016 ) ) ;
#264 = CARTESIAN_POINT ( 'NONE',  ( 4.094488188976385800, -1.311287036958846300E-014, 1.923220987539641200E-013 ) ) ;
#265 = AXIS2_PLACEMENT_3D ( 'NONE', #195, #122, #247 ) ;
#266 = CARTESIAN_POINT ( 'NONE',  ( 5.019841304538013900, -0.02988652256578515400, 1.585341479048985700 ) ) ;
#267 = CARTESIAN_POINT ( 'NONE',  ( 2.950395833157404400E-016, 4.917326388595673800E-016, -1.771653543307082100 ) ) ;
#268 = CARTESIAN_POINT ( 'NONE',  ( 0.0000000000000000000, 0.0000000000000000000, 0.0000000000000000000 ) ) ;
#269 = DATE_AND_TIME ( #209, #309 ) ;
#270 = CARTESIAN_POINT ( 'NONE',  ( 6.989728552889842700, -2.895240363913476100, 1.748382715945128500E-014 ) ) ;
#271 = CYLINDRICAL_SURFACE ( 'NONE', #265, 1.448818897637796700 ) ;
#272 = ORIENTED_EDGE ( 'NONE', *, *, #239, .T. ) ;
#273 =( NAMED_UNIT ( * ) SI_UNIT ( $, .STERADIAN. ) SOLID_ANGLE_UNIT ( ) );
#274 = CARTESIAN_POINT ( 'NONE',  ( 0.0000000000000000000, 0.0000000000000000000, 0.0000000000000000000 ) ) ;
#275 = AXIS2_PLACEMENT_3D ( 'NONE', #286, #205, #127 ) ;
#276 = CARTESIAN_POINT ( 'NONE',  ( 4.094488188976381300, -2.185478394931410600E-015, -1.448818897637443400 ) ) ;
#277 = DIRECTION ( 'NONE',  ( 0.7071067811865472400, -0.7071067811865476800, 2.397971317151697300E-016 ) ) ;
#278 = VERTEX_POINT ( 'NONE', #151 ) ;
#279 = APPLICATION_CONTEXT ( 'configuration controlled 3d designs of mechanical parts and assemblies' ) ;
#280 = ORIENTED_EDGE ( 'NONE', *, *, #140, .T. ) ;
#281 = AXIS2_PLACEMENT_3D ( 'NONE', #208, #137, #200 ) ;
#282 = AXIS2_PLACEMENT_3D ( 'NONE', #250, #263, #288 ) ;
#283 = EDGE_LOOP ( 'NONE', ( #25, #308 ) ) ;
#284 =( GEOMETRIC_REPRESENTATION_CONTEXT ( 3 ) GLOBAL_UNCERTAINTY_ASSIGNED_CONTEXT ( ( #299 ) ) GLOBAL_UNIT_ASSIGNED_CONTEXT ( ( #171, #38, #273 ) ) REPRESENTATION_CONTEXT ( 'NONE', 'WORKASPACE' ) );
#285 = ORIENTED_EDGE ( 'NONE', *, *, #219, .F. ) ;
#286 = CARTESIAN_POINT ( 'NONE',  ( 2.047244094488225800, -7.649174382259936200E-015, 1.748382715945128500E-013 ) ) ;
#287 = PERSON_AND_ORGANIZATION_ROLE ( 'creator' ) ;
#288 = DIRECTION ( 'NONE',  ( -1.233581138472393500E-015, 1.000000000000000000, -3.308722800816950700E-023 ) ) ;
#289 = CARTESIAN_POINT ( 'NONE',  ( 5.357432482284825600, 1.242468506446845500, 0.7387460346845006200 ) ) ;
#290 = CARTESIAN_POINT ( 'NONE',  ( 4.094488188976366200, 1.771653543307100300, -1.053388494888395800 ) ) ;
#291 = PERSON_AND_ORGANIZATION ( #116, #167 ) ;
#292 = ORIENTED_EDGE ( 'NONE', *, *, #84, .F. ) ;
#293 = CARTESIAN_POINT ( 'NONE',  ( 4.094488188976364500, 5.463695987328526400E-015, -1.771653543306734200 ) ) ;
#294 = CARTESIAN_POINT ( 'NONE',  ( 4.094488188976382200, 0.8339766944790569800, -1.464798275013716700 ) ) ;
#295 = DIRECTION ( 'NONE',  ( 1.000000000000000000, -1.387778780781439800E-015, 4.440890907360525300E-016 ) ) ;
#296 = CARTESIAN_POINT ( 'NONE',  ( 4.094488188976366200, 1.771653543307099000, 1.053388494888782400 ) ) ;
#297 = CC_DESIGN_APPROVAL ( #260, ( #201 ) ) ;
#298 = CARTESIAN_POINT ( 'NONE',  ( 4.094488188976362700, -0.03339290500763082000, 1.771338813273305700 ) ) ;
#299 = UNCERTAINTY_MEASURE_WITH_UNIT (LENGTH_MEASURE( 1.000000000000000100E-005 ), #171, 'distance_accuracy_value', 'NONE');
#300 = EDGE_CURVE ( 'NONE', #125, #8, #261, .T. ) ;
#301 = DIRECTION ( 'NONE',  ( 1.000000000000000000, -1.387778780781439800E-015, 4.440890907360525300E-016 ) ) ;
#302 = CARTESIAN_POINT ( 'NONE',  ( 4.851221403480124600, 1.296687385182252200, 1.910744681868055600E-013 ) ) ;
#303 = ORIENTED_EDGE ( 'NONE', *, *, #26, .F. ) ;
#304 = CARTESIAN_POINT ( 'NONE',  ( 5.127295966615285700, -0.01915120473129096300, 1.015882632964449500 ) ) ;
#305 = CARTESIAN_POINT ( 'NONE',  ( 4.575864258583752800, -0.03339290500762964000, -1.771338813272926200 ) ) ;
#306 = EDGE_LOOP ( 'NONE', ( #18 ) ) ;
#307 = CARTESIAN_POINT ( 'NONE',  ( 0.0000000000000000000, 0.0000000000000000000, 0.0000000000000000000 ) ) ;
#308 = ORIENTED_EDGE ( 'NONE', *, *, #300, .F. ) ;
#309 = LOCAL_TIME ( 14, 19, 51.00000000000000000, #258 ) ;
#310 = CALENDAR_DATE ( 2015, 4, 12 ) ;
#311 = APPROVAL_DATE_TIME ( #4, #260 ) ;
#312 = PLANE ( 'NONE',  #187 ) ;
ENDSEC;
END-ISO-10303-21;
