ISO-10303-21;
HEADER;
FILE_DESCRIPTION (( 'STEP AP203' ),
    '1' );
FILE_NAME ('581244015.STEP',
    '2015-12-04T19:17:01',
    ( '' ),
    ( '' ),
    'SwSTEP 2.0',
    'SolidWorks 2015',
    '' );
FILE_SCHEMA (( 'CONFIG_CONTROL_DESIGN' ));
ENDSEC;

DATA;
#1 = FACE_OUTER_BOUND ( 'NONE', #266, .T. ) ;
#2 = CARTESIAN_POINT ( 'NONE',  ( 3.328440258110844800, 0.5632523895892309600, -1.367865222000396700E-016 ) ) ;
#3 = EDGE_CURVE ( 'NONE', #4, #159, #16, .T. ) ;
#4 = VERTEX_POINT ( 'NONE', #212 ) ;
#5 = AXIS2_PLACEMENT_3D ( 'NONE', #166, #63, #250 ) ;
#6 = CYLINDRICAL_SURFACE ( 'NONE', #72, 0.9842519685039370400 ) ;
#7 = COORDINATED_UNIVERSAL_TIME_OFFSET ( 5, 0, .BEHIND. ) ;
#8 = CIRCLE ( 'NONE', #158, 0.9842519685039370400 ) ;
#9 = DIRECTION ( 'NONE',  ( 0.7071067811865470200, -0.7071067811865480200, -1.369133310330802900E-047 ) ) ;
#10 = CYLINDRICAL_SURFACE ( 'NONE', #115, 0.8031496062992126200 ) ;
#11 = DIRECTION ( 'NONE',  ( 0.7071067811865469100, 0.7071067811865479100, 1.026341648675402900E-047 ) ) ;
#12 = FACE_OUTER_BOUND ( 'NONE', #182, .T. ) ;
#13 = CIRCLE ( 'NONE', #213, 0.9842519685039367000 ) ;
#14 = AXIS2_PLACEMENT_3D ( 'NONE', #156, #278, #274 ) ;
#15 = CARTESIAN_POINT ( 'NONE',  ( 1.377952755905511800, 0.0000000000000000000, 0.0000000000000000000 ) ) ;
#16 =( BOUNDED_CURVE ( )  B_SPLINE_CURVE ( 3, ( #289, #161, #70, #71 ),
 .UNSPECIFIED., .F., .T. ) 
 B_SPLINE_CURVE_WITH_KNOTS ( ( 4, 4 ),
 ( 1.570796326794899400, 4.712388980384687900 ),
 .UNSPECIFIED. ) 
 CURVE ( )  GEOMETRIC_REPRESENTATION_ITEM ( )  RATIONAL_B_SPLINE_CURVE ( ( 1.000000000000000000, 0.3333333333333348700, 0.3333333333333348700, 1.000000000000000000 ) ) 
 REPRESENTATION_ITEM ( '' )  );
#17 = FACE_OUTER_BOUND ( 'NONE', #102, .T. ) ;
#18 = FACE_OUTER_BOUND ( 'NONE', #218, .T. ) ;
#19 = PERSON_AND_ORGANIZATION_ROLE ( 'design_supplier' ) ;
#20 = ORIENTED_EDGE ( 'NONE', *, *, #142, .T. ) ;
#21 = PRODUCT_DEFINITION_SHAPE ( 'NONE', 'NONE',  #234 ) ;
#22 = CYLINDRICAL_SURFACE ( 'NONE', #268, 0.8031496062992125000 ) ;
#23 = AXIS2_PLACEMENT_3D ( 'NONE', #169, #55, #57 ) ;
#24 = CARTESIAN_POINT ( 'NONE',  ( 3.175398924198963100, -0.01354855689648267400, 0.7186881371687715600 ) ) ;
#25 = DIRECTION ( 'NONE',  ( 1.000000000000000000, 0.0000000000000000000, 0.0000000000000000000 ) ) ;
#26 = FACE_OUTER_BOUND ( 'NONE', #312, .T. ) ;
#27 = CARTESIAN_POINT ( 'NONE',  ( -4.515198363928294000E-016, 0.8031496062992125000, 1.044120795345370600E-047 ) ) ;
#28 = ORIENTED_EDGE ( 'NONE', *, *, #33, .T. ) ;
#29 = APPROVAL_DATE_TIME ( #31, #179 ) ;
#30 = PERSON_AND_ORGANIZATION ( #77, #88 ) ;
#31 = DATE_AND_TIME ( #32, #93 ) ;
#32 = CALENDAR_DATE ( 2015, 4, 12 ) ;
#33 = EDGE_CURVE ( 'NONE', #80, #80, #171, .T. ) ;
#34 = CARTESIAN_POINT ( 'NONE',  ( 3.457541230315704700, -0.01301032930114350700, -0.6901376582637490700 ) ) ;
#35 = CARTESIAN_POINT ( 'NONE',  ( 2.755905511811022700, 0.9842519685039357000, -0.5852158304936514500 ) ) ;
#36 = COORDINATED_UNIVERSAL_TIME_OFFSET ( 5, 0, .BEHIND. ) ;
#37 = FACE_OUTER_BOUND ( 'NONE', #84, .T. ) ;
#38 = ADVANCED_FACE ( 'NONE', ( #26, #126 ), #138, .T. ) ;
#39 = DIRECTION ( 'NONE',  ( -3.401418580346681300E-016, 1.000000000000000000, 1.300032754988844000E-047 ) ) ;
#40 = CARTESIAN_POINT ( 'NONE',  ( 3.457541230315704700, 0.3973312252599920400, -0.6978733305413844500 ) ) ;
#41 = CARTESIAN_POINT ( 'NONE',  ( 2.755905511811022700, 0.5665602544015314600, -0.9951075237866103800 ) ) ;
#42 = CARTESIAN_POINT ( 'NONE',  ( 3.023336661592899600, 0.5665602544015331300, 0.9951075237866099400 ) ) ;
#43 = LENGTH_MEASURE_WITH_UNIT ( LENGTH_MEASURE( 0.02539999999999999900 ), #79 );
#44 = CARTESIAN_POINT ( 'NONE',  ( 2.755905511811022700, -0.01855161389311927800, -0.9840771184850483100 ) ) ;
#45 = CARTESIAN_POINT ( 'NONE',  ( 2.755905511811022700, 0.0000000000000000000, 0.9842519685039370400 ) ) ;
#46 = CIRCLE ( 'NONE', #137, 0.8031496062992126200 ) ;
#47 = CARTESIAN_POINT ( 'NONE',  ( 3.269990576011928300, 0.8809017562379376500, 0.5237659353058616900 ) ) ;
#48 = CARTESIAN_POINT ( 'NONE',  ( 3.175398924198963100, 0.7188158330901558400, 0.4273930032095836800 ) ) ;
#49 = CARTESIAN_POINT ( 'NONE',  ( 3.175398924198963100, -0.01354855689648302500, -0.7186881371687716700 ) ) ;
#50 = CLOSED_SHELL ( 'NONE', ( #252, #109, #247, #38, #133, #188, #172, #146 ) ) ;
#51 = CARTESIAN_POINT ( 'NONE',  ( 2.755905511811022700, 0.9842519685039360400, -6.831561209328921600E-016 ) ) ;
#52 = CARTESIAN_POINT ( 'NONE',  ( -2.731847993664263200E-016, 0.0000000000000000000, 0.0000000000000000000 ) ) ;
#53 = LOCAL_TIME ( 14, 17, 1.000000000000000000, #185 ) ;
#54 = CARTESIAN_POINT ( 'NONE',  ( 1.940524483517528800, -1.968503937007875400, 0.9842519685039377000 ) ) ;
#55 = DIRECTION ( 'NONE',  ( -1.000000000000000000, -2.220446049250313100E-016, -1.368455531567204200E-048 ) ) ;
#56 = UNCERTAINTY_MEASURE_WITH_UNIT (LENGTH_MEASURE( 1.000000000000000100E-005 ), #223, 'distance_accuracy_value', 'NONE');
#57 = DIRECTION ( 'NONE',  ( 0.0000000000000000000, 1.000000000000000000, 1.300032754988844000E-047 ) ) ;
#58 = CARTESIAN_POINT ( 'NONE',  ( 3.328440258110844800, 0.3242222798121520700, -0.5694646377217688100 ) ) ;
#59 = CARTESIAN_POINT ( 'NONE',  ( 3.269990576011927900, -0.01660362364764775300, 0.8807452661382015900 ) ) ;
#60 = COORDINATED_UNIVERSAL_TIME_OFFSET ( 5, 0, .BEHIND. ) ;
#61 = CARTESIAN_POINT ( 'NONE',  ( 3.023336661592899600, 0.9842519685039368100, 0.5852158304936503400 ) ) ;
#62 = CALENDAR_DATE ( 2015, 4, 12 ) ;
#63 = DIRECTION ( 'NONE',  ( -1.000000000000000000, -7.724765985242127200E-095, -4.447480477593413600E-048 ) ) ;
#64 = EDGE_CURVE ( 'NONE', #224, #248, #157, .T. ) ;
#65 = APPROVAL_DATE_TIME ( #214, #139 ) ;
#66 = APPROVAL_STATUS ( 'not_yet_approved' ) ;
#67 = CARTESIAN_POINT ( 'NONE',  ( 5.052610608184645400, -1.600733855048287000, -1.205321214392072500E-016 ) ) ;
#68 = CARTESIAN_POINT ( 'NONE',  ( 3.023336661592899200, -0.01855161389311928500, -0.9840771184850486400 ) ) ;
#69 = DATE_AND_TIME ( #241, #53 ) ;
#70 = CARTESIAN_POINT ( 'NONE',  ( 2.090554592723536100, -1.606299212598419700, -0.8031496062992095100 ) ) ;
#71 = CARTESIAN_POINT ( 'NONE',  ( 2.755905511811024100, -1.092739197465705300E-015, -0.8031496062992127300 ) ) ;
#72 = AXIS2_PLACEMENT_3D ( 'NONE', #199, #308, #198 ) ;
#73 = CALENDAR_DATE ( 2015, 4, 12 ) ;
#74 = DIRECTION ( 'NONE',  ( 1.000000000000000000, 2.220446049250313100E-016, 1.368455531567204200E-048 ) ) ;
#75 = ORIENTED_EDGE ( 'NONE', *, *, #290, .F. ) ;
#76 = APPROVAL_PERSON_ORGANIZATION ( #298, #139, #264 ) ;
#77 = PERSON ( 'UNSPECIFIED', 'UNSPECIFIED', 'UNSPECIFIED', ('UNSPECIFIED'), ('UNSPECIFIED'), ('UNSPECIFIED') ) ;
#78 =( NAMED_UNIT ( * ) PLANE_ANGLE_UNIT ( ) SI_UNIT ( $, .RADIAN. ) );
#79 =( LENGTH_UNIT ( ) NAMED_UNIT ( * ) SI_UNIT ( $, .METRE. ) );
#80 = VERTEX_POINT ( 'NONE', #276 ) ;
#81 = EDGE_LOOP ( 'NONE', ( #144 ) ) ;
#82 = DIRECTION ( 'NONE',  ( 0.0000000000000000000, 1.000000000000000000, 1.368455531567204200E-047 ) ) ;
#83 = CIRCLE ( 'NONE', #23, 0.8031496062992125000 ) ;
#84 = EDGE_LOOP ( 'NONE', ( #176 ) ) ;
#85 = LOCAL_TIME ( 14, 17, 1.000000000000000000, #60 ) ;
#86 = DATE_TIME_ROLE ( 'creation_date' ) ;
#87 = PERSON_AND_ORGANIZATION_ROLE ( 'design_owner' ) ;
#88 = ORGANIZATION ( 'UNSPECIFIED', 'UNSPECIFIED', '' ) ;
#89 = VERTEX_POINT ( 'NONE', #27 ) ;
#90 = CC_DESIGN_PERSON_AND_ORGANIZATION_ASSIGNMENT ( #30, #175, ( #234 ) ) ;
#91 = CARTESIAN_POINT ( 'NONE',  ( 3.457541230315704700, -0.01301032930114255300, 0.6901376582637491800 ) ) ;
#92 = VERTEX_POINT ( 'NONE', #243 ) ;
#93 = LOCAL_TIME ( 14, 17, 1.000000000000000000, #36 ) ;
#94 = PRODUCT ( '581244015', '581244015', '', ( #220 ) ) ;
#95 = CARTESIAN_POINT ( 'NONE',  ( 3.328440258110844800, 0.3242222798121523500, 0.5694646377217687000 ) ) ;
#96 = EDGE_CURVE ( 'NONE', #107, #107, #117, .T. ) ;
#97 = DIRECTION ( 'NONE',  ( 0.7071067811865474600, 0.7071067811865474600, 1.300032754988844400E-047 ) ) ;
#98 = CARTESIAN_POINT ( 'NONE',  ( 2.974129330033035100, 0.8031496062992112800, -0.4775361176828201200 ) ) ;
#99 = CARTESIAN_POINT ( 'NONE',  ( 1.940524483517528800, -1.968503937007876100, -0.9842519685039363700 ) ) ;
#100 = AXIS2_PLACEMENT_3D ( 'NONE', #67, #101, #11 ) ;
#101 = DIRECTION ( 'NONE',  ( 0.7071067811865480200, -0.7071067811865470200, -4.930380657631323800E-032 ) ) ;
#102 = EDGE_LOOP ( 'NONE', ( #28 ) ) ;
#103 = CARTESIAN_POINT ( 'NONE',  ( 3.269990576011927900, -0.01660362364764897100, -0.8807452661382012500 ) ) ;
#104 = CC_DESIGN_APPROVAL ( #179, ( #234 ) ) ;
#105 = EDGE_LOOP ( 'NONE', ( #75, #210 ) ) ;
#106 = CARTESIAN_POINT ( 'NONE',  ( 3.023336661592899200, 0.9842519685039362600, -6.810218646878419500E-016 ) ) ;
#107 = VERTEX_POINT ( 'NONE', #113 ) ;
#108 = CARTESIAN_POINT ( 'NONE',  ( 3.269990576011927900, 0.8809017562379372100, -6.105914086011853100E-016 ) ) ;
#109 = ADVANCED_FACE ( 'NONE', ( #261 ), #237, .T. ) ;
#110 = CC_DESIGN_DATE_AND_TIME_ASSIGNMENT ( #69, #86, ( #234 ) ) ;
#111 = EDGE_CURVE ( 'NONE', #4, #159, #83, .T. ) ;
#112 = CARTESIAN_POINT ( 'NONE',  ( 2.755905511811024100, -0.01513811693678695700, -0.8030069286837991900 ) ) ;
#113 = CARTESIAN_POINT ( 'NONE',  ( 4.377441414954147300E-048, -1.481595555830634500E-047, -0.9842519685039370400 ) ) ;
#114 = CARTESIAN_POINT ( 'NONE',  ( 3.730265249666503600, -0.9743597378554798000, 0.0000000000000000000 ) ) ;
#115 = AXIS2_PLACEMENT_3D ( 'NONE', #114, #9, #116 ) ;
#116 = DIRECTION ( 'NONE',  ( 0.7071067811865481300, 0.7071067811865470200, 6.842277657836020900E-048 ) ) ;
#117 = CIRCLE ( 'NONE', #309, 0.9842519685039370400 ) ;
#118 = CARTESIAN_POINT ( 'NONE',  ( 2.974129330033035100, 0.4623131675916488700, -0.8120077394098747000 ) ) ;
#119 = ORIENTED_EDGE ( 'NONE', *, *, #233, .F. ) ;
#120 = CARTESIAN_POINT ( 'NONE',  ( 3.269990576011928300, 0.5070692658867941300, 0.8906174367947977700 ) ) ;
#121 = CARTESIAN_POINT ( 'NONE',  ( 2.755905511811024100, 0.8031496062992116200, 0.4775361176828197300 ) ) ;
#122 = CIRCLE ( 'NONE', #239, 0.8031496062992125000 ) ;
#123 = CARTESIAN_POINT ( 'NONE',  ( 3.175398924198963100, 0.7188158330901557300, -1.730688783658931500E-016 ) ) ;
#124 = CARTESIAN_POINT ( 'NONE',  ( 2.755905511811024100, -1.092739197465705300E-015, -0.9842519685039370400 ) ) ;
#125 = CIRCLE ( 'NONE', #14, 0.8031496062992123900 ) ;
#126 = FACE_BOUND ( 'NONE', #81, .T. ) ;
#127 = CARTESIAN_POINT ( 'NONE',  ( 2.755905511811026300, -1.092739197465705300E-015, 0.0000000000000000000 ) ) ;
#128 = ORIENTED_EDGE ( 'NONE', *, *, #290, .T. ) ;
#129 = APPROVAL_STATUS ( 'not_yet_approved' ) ;
#130 = DIRECTION ( 'NONE',  ( 0.0000000000000000000, 0.0000000000000000000, 1.000000000000000000 ) ) ;
#131 = FACE_OUTER_BOUND ( 'NONE', #160, .T. ) ;
#132 = CARTESIAN_POINT ( 'NONE',  ( 2.755905511811024100, 0.4623131675916493100, 0.8120077394098744700 ) ) ;
#133 = ADVANCED_FACE ( 'NONE', ( #165, #281 ), #167, .T. ) ;
#134 = CC_DESIGN_PERSON_AND_ORGANIZATION_ASSIGNMENT ( #180, #256, ( #211 ) ) ;
#135 = APPROVAL ( #129, 'UNSPECIFIED' ) ;
#136 = CC_DESIGN_DATE_AND_TIME_ASSIGNMENT ( #246, #219, ( #211 ) ) ;
#137 = AXIS2_PLACEMENT_3D ( 'NONE', #127, #170, #191 ) ;
#138 = PLANE ( 'NONE',  #100 ) ;
#139 = APPROVAL ( #197, 'UNSPECIFIED' ) ;
#140 = PERSON_AND_ORGANIZATION ( #77, #88 ) ;
#141 = CC_DESIGN_PERSON_AND_ORGANIZATION_ASSIGNMENT ( #140, #87, ( #94 ) ) ;
#142 = EDGE_CURVE ( 'NONE', #89, #89, #122, .T. ) ;
#143 = EDGE_CURVE ( 'NONE', #92, #92, #125, .T. ) ;
#144 = ORIENTED_EDGE ( 'NONE', *, *, #143, .T. ) ;
#145 = CARTESIAN_POINT ( 'NONE',  ( 3.328440258110844800, 0.5632523895892309600, -0.3348982023902125600 ) ) ;
#146 = ADVANCED_FACE ( 'NONE', ( #232 ), #148, .F. ) ;
#147 = CARTESIAN_POINT ( 'NONE',  ( 3.328440258110844800, -0.01061642870973400100, 0.5631523291432177800 ) ) ;
#148 =( BOUNDED_SURFACE ( )  B_SPLINE_SURFACE ( 3, 3, ( 
 ( #251, #58, #145, #2, #226, #95, #147 ),
 ( #49, #225, #272, #123, #48, #205, #24 ),
 ( #201, #118, #98, #258, #257, #284, #194 ),
 ( #112, #291, #283, #306, #121, #132, #277 ) ),
 .UNSPECIFIED., .F., .F., .T. ) 
 B_SPLINE_SURFACE_WITH_KNOTS ( ( 4, 4 ),
 ( 4, 3, 4 ),
 ( 0.0000000000000000000, 1.000000000000000000 ),
 ( 0.0000000000000000000, 0.5000000000000000000, 1.000000000000000000 ),
 .UNSPECIFIED. ) 
 GEOMETRIC_REPRESENTATION_ITEM ( )  RATIONAL_B_SPLINE_SURFACE ( (
 ( 1.000000000000000000, 0.8002741005225372200, 0.8002741005225372200, 1.000000000000000000, 0.8002741005225372200, 0.8002741005225372200, 1.000000000000000000),
 ( 0.9482053969659238700, 0.7588242211675201300, 0.7588242211675201300, 0.9482053969659238700, 0.7588242211675201300, 0.7588242211675201300, 0.9482053969659238700),
 ( 0.9482053969659238700, 0.7588242211675201300, 0.7588242211675201300, 0.9482053969659238700, 0.7588242211675201300, 0.7588242211675201300, 0.9482053969659238700),
 ( 1.000000000000000000, 0.8002741005225372200, 0.8002741005225372200, 1.000000000000000000, 0.8002741005225372200, 0.8002741005225372200, 1.000000000000000000) ) ) 
 REPRESENTATION_ITEM ( '' )  SURFACE ( )  );
#149 = CC_DESIGN_APPROVAL ( #139, ( #211 ) ) ;
#150 = DIRECTION ( 'NONE',  ( -0.7071067811865474600, 0.7071067811865475700, 2.019483917365789000E-032 ) ) ;
#151 = DESIGN_CONTEXT ( 'detailed design', #178, 'design' ) ;
#152 = ORIENTED_EDGE ( 'NONE', *, *, #299, .T. ) ;
#153 = PRODUCT_DEFINITION_FORMATION_WITH_SPECIFIED_SOURCE ( 'ANY', '', #94, .NOT_KNOWN. ) ;
#154 = CARTESIAN_POINT ( 'NONE',  ( 3.269990576011928300, 0.5070692658867928000, -0.8906174367947982100 ) ) ;
#155 = CARTESIAN_POINT ( 'NONE',  ( 2.755905511811024100, -1.092739197465705300E-015, -0.9842519685039370400 ) ) ;
#156 = CARTESIAN_POINT ( 'NONE',  ( 4.704624987521985900, -1.948719475710964000, 0.0000000000000000000 ) ) ;
#157 =( BOUNDED_CURVE ( )  B_SPLINE_CURVE ( 3, ( #45, #54, #99, #155 ),
 .UNSPECIFIED., .F., .T. ) 
 B_SPLINE_CURVE_WITH_KNOTS ( ( 4, 4 ),
 ( 1.570796326794896100, 4.712388980384689700 ),
 .UNSPECIFIED. ) 
 CURVE ( )  GEOMETRIC_REPRESENTATION_ITEM ( )  RATIONAL_B_SPLINE_CURVE ( ( 1.000000000000000000, 0.3333333333333332000, 0.3333333333333332000, 1.000000000000000000 ) ) 
 REPRESENTATION_ITEM ( '' )  );
#158 = AXIS2_PLACEMENT_3D ( 'NONE', #249, #280, #82 ) ;
#159 = VERTEX_POINT ( 'NONE', #270 ) ;
#160 = EDGE_LOOP ( 'NONE', ( #288, #260 ) ) ;
#161 = CARTESIAN_POINT ( 'NONE',  ( 2.090554592723535200, -1.606299212598419900, 0.8031496062992081700 ) ) ;
#162 = EDGE_LOOP ( 'NONE', ( #20 ) ) ;
#163 = ORIENTED_EDGE ( 'NONE', *, *, #111, .T. ) ;
#164 =( GEOMETRIC_REPRESENTATION_CONTEXT ( 3 ) GLOBAL_UNCERTAINTY_ASSIGNED_CONTEXT ( ( #56 ) ) GLOBAL_UNIT_ASSIGNED_CONTEXT ( ( #223, #78, #217 ) ) REPRESENTATION_CONTEXT ( 'NONE', 'WORKASPACE' ) );
#165 = FACE_OUTER_BOUND ( 'NONE', #302, .T. ) ;
#166 = CARTESIAN_POINT ( 'NONE',  ( 2.731847993664263200E-016, 0.4921259842519684100, -1.205321214392072500E-016 ) ) ;
#167 = PLANE ( 'NONE',  #5 ) ;
#168 = DIRECTION ( 'NONE',  ( 4.447480477593413600E-048, -1.505301084723924600E-047, -1.000000000000000000 ) ) ;
#169 = CARTESIAN_POINT ( 'NONE',  ( 2.755905511811024100, -1.092739197465705300E-015, 0.0000000000000000000 ) ) ;
#170 = DIRECTION ( 'NONE',  ( 0.7071067811865470200, -0.7071067811865480200, -1.369133310330802900E-047 ) ) ;
#171 = CIRCLE ( 'NONE', #303, 0.9842519685039367000 ) ;
#172 = ADVANCED_FACE ( 'NONE', ( #174, #131 ), #22, .F. ) ;
#173 = PRODUCT_RELATED_PRODUCT_CATEGORY ( 'detail', '', ( #94 ) ) ;
#174 = FACE_OUTER_BOUND ( 'NONE', #282, .T. ) ;
#175 = PERSON_AND_ORGANIZATION_ROLE ( 'creator' ) ;
#176 = ORIENTED_EDGE ( 'NONE', *, *, #143, .F. ) ;
#177 = CC_DESIGN_SECURITY_CLASSIFICATION ( #211, ( #153 ) ) ;
#178 = APPLICATION_CONTEXT ( 'configuration controlled 3d designs of mechanical parts and assemblies' ) ;
#179 = APPROVAL ( #66, 'UNSPECIFIED' ) ;
#180 = PERSON_AND_ORGANIZATION ( #77, #88 ) ;
#181 = ORIENTED_EDGE ( 'NONE', *, *, #142, .F. ) ;
#182 = EDGE_LOOP ( 'NONE', ( #208 ) ) ;
#183 = CARTESIAN_POINT ( 'NONE',  ( 3.457541230315704700, 0.3973312252599930900, 0.6978733305413840100 ) ) ;
#184 = CC_DESIGN_APPROVAL ( #135, ( #153 ) ) ;
#185 = COORDINATED_UNIVERSAL_TIME_OFFSET ( 5, 0, .BEHIND. ) ;
#186 = CC_DESIGN_PERSON_AND_ORGANIZATION_ASSIGNMENT ( #216, #19, ( #153 ) ) ;
#187 = MANIFOLD_SOLID_BREP ( '1', #50 ) ;
#188 = ADVANCED_FACE ( 'NONE', ( #37, #18 ), #10, .F. ) ;
#189 = CC_DESIGN_PERSON_AND_ORGANIZATION_ASSIGNMENT ( #296, #227, ( #153 ) ) ;
#190 = EDGE_LOOP ( 'NONE', ( #152, #163 ) ) ;
#191 = DIRECTION ( 'NONE',  ( 0.7071067811865481300, 0.7071067811865470200, 6.842277657836020900E-048 ) ) ;
#192 = APPLICATION_CONTEXT ( 'configuration controlled 3d designs of mechanical parts and assemblies' ) ;
#193 = SHAPE_DEFINITION_REPRESENTATION ( #21, #235 ) ;
#194 = CARTESIAN_POINT ( 'NONE',  ( 2.974129330033035100, -0.01513811693678656500, 0.8030069286837993000 ) ) ;
#195 = APPROVAL_PERSON_ORGANIZATION ( #307, #135, #275 ) ;
#196 = LOCAL_TIME ( 14, 17, 1.000000000000000000, #7 ) ;
#197 = APPROVAL_STATUS ( 'not_yet_approved' ) ;
#198 = DIRECTION ( 'NONE',  ( 0.0000000000000000000, -1.505301084723924600E-047, -1.000000000000000000 ) ) ;
#199 = CARTESIAN_POINT ( 'NONE',  ( 1.377952755905511800, 0.0000000000000000000, 0.0000000000000000000 ) ) ;
#200 = CARTESIAN_POINT ( 'NONE',  ( 3.023336661592899600, 0.5665602544015315700, -0.9951075237866106000 ) ) ;
#201 = CARTESIAN_POINT ( 'NONE',  ( 2.974129330033035100, -0.01513811693678695500, -0.8030069286837993000 ) ) ;
#202 = CARTESIAN_POINT ( 'NONE',  ( 2.755905511811022700, 0.0000000000000000000, 0.9842519685039370400 ) ) ;
#203 = DIRECTION ( 'NONE',  ( 0.7071067811865474600, -0.7071067811865475700, -2.019483917365789000E-032 ) ) ;
#204 = DIRECTION ( 'NONE',  ( 0.7071067811865474600, 0.7071067811865476800, 1.300032754988844400E-047 ) ) ;
#205 = CARTESIAN_POINT ( 'NONE',  ( 3.175398924198963100, 0.4137685209636221000, 0.7267438284245549800 ) ) ;
#206 = CARTESIAN_POINT ( 'NONE',  ( 3.023336661592899600, 0.9842519685039358100, -0.5852158304936517800 ) ) ;
#207 = DATE_AND_TIME ( #73, #255 ) ;
#208 = ORIENTED_EDGE ( 'NONE', *, *, #96, .T. ) ;
#209 = DIRECTION ( 'NONE',  ( -2.220446049250313600E-016, 1.000000000000000000, 1.300032754988844000E-047 ) ) ;
#210 = ORIENTED_EDGE ( 'NONE', *, *, #64, .F. ) ;
#211 = SECURITY_CLASSIFICATION ( '', '', #231 ) ;
#212 = CARTESIAN_POINT ( 'NONE',  ( 2.755905511811024100, -2.185478394931410600E-015, 0.8031496062992127300 ) ) ;
#213 = AXIS2_PLACEMENT_3D ( 'NONE', #301, #203, #204 ) ;
#214 = DATE_AND_TIME ( #297, #196 ) ;
#215 = DIRECTION ( 'NONE',  ( 0.7071067811865474600, -0.7071067811865475700, -2.019483917365789000E-032 ) ) ;
#216 = PERSON_AND_ORGANIZATION ( #77, #88 ) ;
#217 =( NAMED_UNIT ( * ) SI_UNIT ( $, .STERADIAN. ) SOLID_ANGLE_UNIT ( ) );
#218 = EDGE_LOOP ( 'NONE', ( #271, #300 ) ) ;
#219 = DATE_TIME_ROLE ( 'classification_date' ) ;
#220 = MECHANICAL_CONTEXT ( 'NONE', #192, 'mechanical' ) ;
#221 = CYLINDRICAL_SURFACE ( 'NONE', #279, 0.9842519685039367000 ) ;
#222 = FACE_OUTER_BOUND ( 'NONE', #105, .T. ) ;
#223 =( CONVERSION_BASED_UNIT ( 'INCH', #43 ) LENGTH_UNIT ( ) NAMED_UNIT ( #311 ) );
#224 = VERTEX_POINT ( 'NONE', #202 ) ;
#225 = CARTESIAN_POINT ( 'NONE',  ( 3.175398924198963100, 0.4137685209636218800, -0.7267438284245553200 ) ) ;
#226 = CARTESIAN_POINT ( 'NONE',  ( 3.328440258110844800, 0.5632523895892309600, 0.3348982023902122300 ) ) ;
#227 = PERSON_AND_ORGANIZATION_ROLE ( 'creator' ) ;
#228 = APPLICATION_PROTOCOL_DEFINITION ( 'international standard', 'config_control_design', 1994, #192 ) ;
#229 = CARTESIAN_POINT ( 'NONE',  ( 3.457541230315704700, 0.6902602813593539100, 0.4104144637134954400 ) ) ;
#230 = PERSON_AND_ORGANIZATION ( #77, #88 ) ;
#231 = SECURITY_CLASSIFICATION_LEVEL ( 'unclassified' ) ;
#232 = FACE_OUTER_BOUND ( 'NONE', #190, .T. ) ;
#233 = EDGE_CURVE ( 'NONE', #248, #224, #13, .T. ) ;
#234 = PRODUCT_DEFINITION ( 'UNKNOWN', '', #153, #151 ) ;
#235 = ADVANCED_BREP_SHAPE_REPRESENTATION ( '581244015', ( #187, #294 ), #164 ) ;
#236 = ORIENTED_EDGE ( 'NONE', *, *, #233, .T. ) ;
#237 =( BOUNDED_SURFACE ( )  B_SPLINE_SURFACE ( 3, 3, ( 
 ( #34, #40, #263, #238, #229, #183, #91 ),
 ( #103, #154, #304, #108, #47, #120, #59 ),
 ( #68, #200, #206, #106, #61, #42, #244 ),
 ( #44, #41, #35, #51, #262, #253, #273 ) ),
 .UNSPECIFIED., .F., .F., .T. ) 
 B_SPLINE_SURFACE_WITH_KNOTS ( ( 4, 4 ),
 ( 4, 3, 4 ),
 ( 0.0000000000000000000, 1.000000000000000000 ),
 ( 0.0000000000000000000, 0.5000000000000000000, 1.000000000000000000 ),
 .UNSPECIFIED. ) 
 GEOMETRIC_REPRESENTATION_ITEM ( )  RATIONAL_B_SPLINE_SURFACE ( (
 ( 1.000000000000000000, 0.8002741005225377800, 0.8002741005225377800, 1.000000000000000000, 0.8002741005225377800, 0.8002741005225377800, 1.000000000000000000),
 ( 0.9482053969659241000, 0.7588242211675208000, 0.7588242211675208000, 0.9482053969659241000, 0.7588242211675208000, 0.7588242211675208000, 0.9482053969659241000),
 ( 0.9482053969659241000, 0.7588242211675208000, 0.7588242211675208000, 0.9482053969659241000, 0.7588242211675208000, 0.7588242211675208000, 0.9482053969659241000),
 ( 1.000000000000000000, 0.8002741005225377800, 0.8002741005225377800, 1.000000000000000000, 0.8002741005225377800, 0.8002741005225377800, 1.000000000000000000) ) ) 
 REPRESENTATION_ITEM ( '' )  SURFACE ( )  );
#238 = CARTESIAN_POINT ( 'NONE',  ( 3.457541230315704700, 0.6902602813593535800, -4.782675214080724700E-016 ) ) ;
#239 = AXIS2_PLACEMENT_3D ( 'NONE', #52, #74, #209 ) ;
#240 = CARTESIAN_POINT ( 'NONE',  ( 3.730265249666503600, -0.9743597378554798000, 0.0000000000000000000 ) ) ;
#241 = CALENDAR_DATE ( 2015, 4, 12 ) ;
#242 = APPROVAL_PERSON_ORGANIZATION ( #230, #179, #254 ) ;
#243 = CARTESIAN_POINT ( 'NONE',  ( 5.272537520443465000, -1.380806942789485100, 5.495372607080898600E-048 ) ) ;
#244 = CARTESIAN_POINT ( 'NONE',  ( 3.023336661592899200, -0.01855161389311792500, 0.9840771184850487500 ) ) ;
#245 = DIRECTION ( 'NONE',  ( 0.7071067811865474600, 0.7071067811865476800, 1.300032754988844400E-047 ) ) ;
#246 = DATE_AND_TIME ( #62, #85 ) ;
#247 = ADVANCED_FACE ( 'NONE', ( #222, #12 ), #6, .T. ) ;
#248 = VERTEX_POINT ( 'NONE', #124 ) ;
#249 = CARTESIAN_POINT ( 'NONE',  ( 2.755905511811024100, -1.092739197465705300E-015, 0.0000000000000000000 ) ) ;
#250 = DIRECTION ( 'NONE',  ( -4.447480477593413600E-048, 1.505301084723924600E-047, 1.000000000000000000 ) ) ;
#251 = CARTESIAN_POINT ( 'NONE',  ( 3.328440258110844800, -0.01061642870973427500, -0.5631523291432177800 ) ) ;
#252 = ADVANCED_FACE ( 'NONE', ( #17, #1 ), #221, .T. ) ;
#253 = CARTESIAN_POINT ( 'NONE',  ( 2.755905511811022700, 0.5665602544015329000, 0.9951075237866096000 ) ) ;
#254 = APPROVAL_ROLE ( '' ) ;
#255 = LOCAL_TIME ( 14, 17, 1.000000000000000000, #305 ) ;
#256 = PERSON_AND_ORGANIZATION_ROLE ( 'classification_officer' ) ;
#257 = CARTESIAN_POINT ( 'NONE',  ( 2.974129330033035100, 0.8031496062992116200, 0.4775361176828196700 ) ) ;
#258 = CARTESIAN_POINT ( 'NONE',  ( 2.974129330033035100, 0.8031496062992113900, -1.965456970614454200E-016 ) ) ;
#259 = ORIENTED_EDGE ( 'NONE', *, *, #96, .F. ) ;
#260 = ORIENTED_EDGE ( 'NONE', *, *, #111, .F. ) ;
#261 = FACE_OUTER_BOUND ( 'NONE', #287, .T. ) ;
#262 = CARTESIAN_POINT ( 'NONE',  ( 2.755905511811022700, 0.9842519685039363700, 0.5852158304936502200 ) ) ;
#263 = CARTESIAN_POINT ( 'NONE',  ( 3.457541230315704700, 0.6902602813593533600, -0.4104144637134962700 ) ) ;
#264 = APPROVAL_ROLE ( '' ) ;
#265 = CARTESIAN_POINT ( 'NONE',  ( 0.0000000000000000000, 0.0000000000000000000, 0.0000000000000000000 ) ) ;
#266 = EDGE_LOOP ( 'NONE', ( #310, #236 ) ) ;
#267 = ORIENTED_EDGE ( 'NONE', *, *, #33, .F. ) ;
#268 = AXIS2_PLACEMENT_3D ( 'NONE', #15, #293, #39 ) ;
#269 = APPLICATION_PROTOCOL_DEFINITION ( 'international standard', 'config_control_design', 1994, #178 ) ;
#270 = CARTESIAN_POINT ( 'NONE',  ( 2.755905511811024100, -1.092739197465705300E-015, -0.8031496062992127300 ) ) ;
#271 = ORIENTED_EDGE ( 'NONE', *, *, #299, .F. ) ;
#272 = CARTESIAN_POINT ( 'NONE',  ( 3.175398924198963100, 0.7188158330901556200, -0.4273930032095840700 ) ) ;
#273 = CARTESIAN_POINT ( 'NONE',  ( 2.755905511811022700, -0.01855161389311791800, 0.9840771184850484200 ) ) ;
#274 = DIRECTION ( 'NONE',  ( 0.7071067811865475700, 0.7071067811865473500, 6.842277657836022100E-048 ) ) ;
#275 = APPROVAL_ROLE ( '' ) ;
#276 = CARTESIAN_POINT ( 'NONE',  ( 5.400596228847324400, -1.252748234385616700, 1.279559798217366100E-047 ) ) ;
#277 = CARTESIAN_POINT ( 'NONE',  ( 2.755905511811024100, -0.01513811693678656500, 0.8030069286837991900 ) ) ;
#278 = DIRECTION ( 'NONE',  ( -0.7071067811865470200, 0.7071067811865480200, 1.369133310330802900E-047 ) ) ;
#279 = AXIS2_PLACEMENT_3D ( 'NONE', #240, #215, #245 ) ;
#280 = DIRECTION ( 'NONE',  ( 1.000000000000000000, 0.0000000000000000000, -6.842277657836020900E-049 ) ) ;
#281 = FACE_BOUND ( 'NONE', #162, .T. ) ;
#282 = EDGE_LOOP ( 'NONE', ( #181 ) ) ;
#283 = CARTESIAN_POINT ( 'NONE',  ( 2.755905511811024100, 0.8031496062992112800, -0.4775361176828201700 ) ) ;
#284 = CARTESIAN_POINT ( 'NONE',  ( 2.974129330033035100, 0.4623131675916492500, 0.8120077394098743600 ) ) ;
#285 = APPROVAL_DATE_TIME ( #207, #135 ) ;
#286 = DIRECTION ( 'NONE',  ( 1.000000000000000000, 0.0000000000000000000, -6.842277657836020900E-049 ) ) ;
#287 = EDGE_LOOP ( 'NONE', ( #119, #128 ) ) ;
#288 = ORIENTED_EDGE ( 'NONE', *, *, #3, .T. ) ;
#289 = CARTESIAN_POINT ( 'NONE',  ( 2.755905511811024100, -2.185478394931410600E-015, 0.8031496062992127300 ) ) ;
#290 = EDGE_CURVE ( 'NONE', #248, #224, #8, .T. ) ;
#291 = CARTESIAN_POINT ( 'NONE',  ( 2.755905511811024100, 0.4623131675916489200, -0.8120077394098749200 ) ) ;
#292 = CARTESIAN_POINT ( 'NONE',  ( 0.0000000000000000000, 0.0000000000000000000, 0.0000000000000000000 ) ) ;
#293 = DIRECTION ( 'NONE',  ( 1.000000000000000000, 2.220446049250313100E-016, 1.368455531567204200E-048 ) ) ;
#294 = AXIS2_PLACEMENT_3D ( 'NONE', #292, #130, #25 ) ;
#295 = CARTESIAN_POINT ( 'NONE',  ( 4.704624987521982300, -1.948719475710958500, 0.0000000000000000000 ) ) ;
#296 = PERSON_AND_ORGANIZATION ( #77, #88 ) ;
#297 = CALENDAR_DATE ( 2015, 4, 12 ) ;
#298 = PERSON_AND_ORGANIZATION ( #77, #88 ) ;
#299 = EDGE_CURVE ( 'NONE', #159, #4, #46, .T. ) ;
#300 = ORIENTED_EDGE ( 'NONE', *, *, #3, .F. ) ;
#301 = CARTESIAN_POINT ( 'NONE',  ( 2.755905511811024100, -1.092739197465705300E-015, 0.0000000000000000000 ) ) ;
#302 = EDGE_LOOP ( 'NONE', ( #259 ) ) ;
#303 = AXIS2_PLACEMENT_3D ( 'NONE', #295, #150, #97 ) ;
#304 = CARTESIAN_POINT ( 'NONE',  ( 3.269990576011928300, 0.8809017562379366500, -0.5237659353058628000 ) ) ;
#305 = COORDINATED_UNIVERSAL_TIME_OFFSET ( 5, 0, .BEHIND. ) ;
#306 = CARTESIAN_POINT ( 'NONE',  ( 2.755905511811024100, 0.8031496062992115000, -1.965456970614454200E-016 ) ) ;
#307 = PERSON_AND_ORGANIZATION ( #77, #88 ) ;
#308 = DIRECTION ( 'NONE',  ( 1.000000000000000000, 0.0000000000000000000, -6.842277657836020900E-049 ) ) ;
#309 = AXIS2_PLACEMENT_3D ( 'NONE', #265, #286, #168 ) ;
#310 = ORIENTED_EDGE ( 'NONE', *, *, #64, .T. ) ;
#311 = DIMENSIONAL_EXPONENTS ( 1.000000000000000000, 0.0000000000000000000, 0.0000000000000000000, 0.0000000000000000000, 0.0000000000000000000, 0.0000000000000000000, 0.0000000000000000000 ) ;
#312 = EDGE_LOOP ( 'NONE', ( #267 ) ) ;
ENDSEC;
END-ISO-10303-21;
